Iron Maiden - No More Lies Chords & Tabs

 

No More Lies Chords & Tabs

Iron Maiden Chords & Tabs

Version: 2 Type: Tab 0 ratings
1 star 2 stars 3 stars 4 stars 5 stars
comments

No More Lies Tab

No More Lies
Iron Maiden
Dance of Death
Tabbed by: cpt_pimp (wigga123@hotmail.com)

Intro
|------------------------------------------------| \
|------------------------------------------------|  \
|------------------------------------------------|   \
|---9-7-9--7-9-7-9-9--7-9-7-9-9--7-9-10-12-10-9--|    \
|-7----------------------------------------------|     \
|------------------------------------------------|      \
                                                     Repeat x2
|------------------------------------------------|      /
|------------------------------------------------|     /
|------------------------------------------------|    /
|-7-9-7-5-5--4-5-4-5-5--4-5-4-2-2----2---2-------|   /
|----------------------------------5---5---5-7---|  /
|------------------------------------------------| /

|----------------|---------------------|
|----------------|---------------------|
|---9-9-9-9-7-9--|---9-9-9-9-10-9-7-9--| Repeat x3
|-7--------------|-7-------------------|
|----------------|---------------------|
|----------------|---------------------|

|----------------|---------------------|
|----------------|---------------------|
|---9-9-9-9-7-9--|---9-9-9-9-10-9-10-9-|
|-7--------------|-7-------------------|
|----------------|---------------------|
|----------------|---------------------|
[ Tab from: http://www.guitartabs.cc/tabs/i/iron_maiden/no_more_lies_tab_ver_2.html ]
|-5-7-8--5-7-8--5-7-8--10-8-7-8-7----|
|--------------------------------8---|
|------------------------------------| Repeat x4
|------------------------------------|
|------------------------------------|
|------------------------------------|

Verse(repeat them as necessary, i just put 3 of each as an example)
|----------------------------------------------------|
|----------------------------------------------------|
|----------------------------------------------------|
|---9---9---9----5---5---5----7---7---7----7---7--7--|
|-7---7---7----3---3---3----5---5---5----7---7--7----|
|----------------------------------------------------|

No more lies, No more lies, No more lies, No more lies
|---------------------------------------------------|
|---------------------------------------------------|
|---------------------------------------------------|
|-7-----------3-------------5-------------7---------|
|-7-----------3-------------5-------------7---------|
|-5-----------1-------------3-------------5---------|


Verse 2 (these are basically the chords, just repeat as necessary)
|---------------------|
|---------------------|
|---------------------|
|-7---3---5---5---7---|
|-7---3---5---5---7---|
|-5---1---3---5---5---|


Thats basically the whole song. I didnt put a pre-chorus because its not hard to
find out, just follow the first verses notes, and you'll find it. Later in the
song, repeat the intro. And i'm not good at solos, even though iron maiden majors
in them, so i couldnt figure it out. I spent couple of days commin up wit this,
its pretty similar to The Clansman,which i also have tabbed here, so it wasn't
very difficult. Of course, any suggestions, email's at top.
Comments