Iron Maiden - No More Lies Chords & Tabs

 

No More Lies Chords & Tabs

Iron Maiden Chords & Tabs

Version: 1 Type: Bass Tab 1 rating
1 star 2 stars 3 stars 4 stars 5 stars
comments

No More Lies Bass Tab

                                      NO MORE LIES
                                      IRON MAIDEN
                           FROM THE ALBUM " DANCE OF DEATH "
                                        BASS TAB
                     TRANSCRIBED BY DARGOR ( dargor_k@hotmail.com )


                -------------------------------------------------
                |  :    REPEAT          |  h    HAMMER ON       |
                |  /    SLIDE UP        |  p    PULL OFF        |
                |  \    SLIDE DOWN      | ( )   HARMINICS       |
                |  >    ACCENT          |  ~    STRING BEND     |
                |  .    STACATTO        |  +    LET RING        |
                -------------------------------------------------

        .          .          .
-.--9-7-9--7-9-7-9-9--7-9-7-9-9--7-9-10-12-10-9--7-9-7-----.-------------.----------.----
-7-----------------------------------------------------10-10--9-10-9-10-10-9-10-9-7-7--5-
-----------------------------------------------------------------------------------------
-----------------------------------------------------------------------------------------
        .         .          .          .
------.-7--.--9-7-9--7-9-7-9-9--7-9-7-9-9--7-9-10-12-10-9--7-9-7-----.-------------.-----
7-5-7-5----7-----------------------------------------------------10-10--9-10-9-10-10-9-10
-----------------------------------------------------------------------------------------
-----------------------------------------------------------------------------------------
                  .
-----.----------.-7-|----9---9---9---9---9---9---9---9---------------------5-------7----|
-9-7-7--5-7-5-7-5---|.-7---7---7---7---7---7---7---7-----7---7---7---7---3---3---5---5-.|
--------------------|.---------------------------------5---5---5---5-------------------.|
--------------------|-------------------------------------------------------------------|
                                                                          play 4 times

|----9---9---9---9---9---9---9---9-----5---5---5---5-----7---7---7---7-----9---9---9---9-
|.-7---7---7---7---7---7---7---7-----3---3---3---3-----5---5---5---5-----7---7---7---7---
|.---------------------------------------------------------------------------------------
|----------------------------------------------------------------------------------------

---9---9---9---9-----------------------5--------7-----|----9---9---9---9---9---9---9---9-
-7---7---7---7-------7---7---7---7---3---3----5---5--.|.-7---7---7---7---7---7---7---7---
-------------------5---5---5---5---------------------.|.---------------------------------
------------------------------------------------------|----------------------------------
                                                                  lyrics enter

----5---5---5---5---5---5---5---5---------------------------------------7---7---7---7---7
--3---3---3---3---3---3---3---3-------7---7---7---7---7---7---7---7---5---5---5---5---5--
------------------------------------5---5---5---5---5---5---5---5------------------------
-----------------------------------------------------------------------------------------

---7---7---7---|----9---9---9---9---------------------5---5---5---5----7---7---7---7----9
-5---5---5----.|.-7---7---7---7------7---7---7---7--3---3---3---3----5---5---5---5----7--
--------------.|.------------------5---5---5---5-----------------------------------------
---------------|-------------------------------------------------------------------------
 play 4 times

---9---9---9---------------------5---5---5---5----7---7---7---7---|--9-9-9-9-9--9-9-9-9-9
-7---7---7------7---7---7---7--3---3---3---3----5---5---5---5----.|--7-7-7-7-7--7-7-7-7-7
--------------5---5---5---5--------------------------------------.|--0-0-0-0-0--0-0-0-0-0
------------------------------------------------------------------|----------------------
                                                                      "No more lies..."

---5-5-5-5-5--5-5-5-5-5---7-7-7-7-7--7-7-7-7-7---7-7-7-7-7--7-7-7-7-7---9-9-9-9-9--9-9-9-
---3-3-3-3-3--3-3-3-3-3---5-5-5-5-5--5-5-5-5-5---7-7-7-7-7--7-7-7-7-7---7-7-7-7-7--7-7-7-
-------------------------------------------------5-5-5-5-5--5-5-5-5-5---0-0-0-0-0--0-0-0-
-----------------------------------------------------------------------------------------

9-9---5-5-5-5-5--5-5-5-5-5---7-7-7-7-7--7-7-7-7-7---7-7-7-7-7--7-7-7-7-7--|--9-----------
7-7---3-3-3-3-3--3-3-3-3-3---5-5-5-5-5--5-5-5-5-5---7-7-7-7-7--7-7-7-7-7--|.-7-7-7-7-7-7-
0-0-------------------------------------------------5-5-5-5-5--5-5-5-5-5--|.-0-----------
--------------------------------------------------------------------------|--------------
                                                                              faster

---------------------5--------------------------------7--------------------------------7-
7-7-7-7-7-7-7-7-7-7--3-3-3-3-3-3-3-3-3-3-3-3-3-3-3-3--7--------------------------------5-
------------------------------------------------------5-5-5-5-5-5-5-5-5-5-5-5-5-5-5-5----
-----------------------------------------------------------------------------------------

-------------------------------9--------------------------------5------------------------
5-5-5-5-5-5-5-5-5-5-5-5-5-5-5--7-7-7-7-7-7-7-7-7-7-7-7-7-7-7-7--3-3-3-3-3-3-3-3-3-3-3-3-3
-------------------------------0---------------------------------------------------------
-----------------------------------------------------------------------------------------

--------7--------------------------------7---------------------------------|-9-----------
-3-3-3--7--------------------------------5-5-5-5-5-5-5-5-5-5-5-5-5-5-5-5--.|-7-7-7-7-7-7-
--------5-5-5-5-5-5-5-5-5-5-5-5-5-5-5-5-----------------------------------.|-0-----------
---------------------------------------------------------------------------|-------------

-----7----------------5----------------7----------------9----------------7---------------
7-7--7----------------3-3-3-3-3-3-3-3--5-5-5-5-5-5-5-5--7-7-7-7-7-7-7-7--7---------------
-----5-5-5-5-5-5-5-5------------------------------------0----------------5-5-5-5-5-5-5-5-
-----------------------------------------------------------------------------------------

-5----------------7--------------------------------9-9-9-9-9--9-9-9-9-9---5-5-5-5-5--5-5-
-3-3-3-3-3-3-3-3--5-5-5-5-5-5-5-5-5-5-5-5-5-5-5-5--7-7-7-7-7--7-7-7-7-7---3-3-3-3-3--3-3-
---------------------------------------------------0-0-0-0-0--0-0-0-0-0------------------
-----------------------------------------------------------------------------------------

5-5-5---7-7-7-7-7--7-7-7-7-7---7-7-7-7-7--7-7-7-7-7---9--------------------5-------------
3-3-3---5-5-5-5-5--5-5-5-5-5---7-7-7-7-7--7-7-7-7-7---7-7-7-7-7-7-7-7-7-7--3-3-3-3-3-3-3-
-------------------------------5-5-5-5-5--5-5-5-5-5---0----------------------------------
-----------------------------------------------------------------------------------------

-------7--------------------7---------------------9-------------------------------9------
3-3-3--5-5-5-5-5-5-5-5-5-5--7---------------------7-7-7-7-7-7-7-7-7-7-7-7-7-7-7-7-7-7-7-7
----------------------------5-5-5-5-5-5-5-5-5-5---0--------------------------------------
-----------------------------------------------------------------------------------------
[ Tab from: http://www.guitartabs.cc/tabs/i/iron_maiden/no_more_lies_btab.html ]
--------------------------5--------------------------------7-----------------------------
-7-7-7-7-7-7-7-7-7-7-7-7--3-3-3-3-3-3-3-3-3-3-3-3-3-3-3-3--7---------------------------5-
-----------------------------------------------------------5-5-5-5-5-5-5-5-5-5-5-5-5-5---
-----------------------------------------------------------------------------------------

7--9-------------------------------9--------------------------------5--------------------
---7-7-7-7-7-7-7-7-7-7-7-7-7-7-7-7-7-7-7-7-7-7-7-7-7-7-7-7-7-7-7-7--3-3-3-3-3-3-3-3-3-3-3
---0-------------------------------------------------------------------------------------
-----------------------------------------------------------------------------------------
                                                                               . . . .
------------7-----------------------------7-|--9-------------------7-----------5-5-7-7--|
-3-3-3-3-3--7---------------------------5---|.-7--7-7-7-7-7-7-7-7--7--.---.----3-3-5-5-.|
------------5-5-5-5-5-5-5-5-5-5-5-5-5-5-----|.-0-------------------5--5-5-5-5----------.|
--------------------------------------------|-------------------------------------------|
                                               a little slower            play 4 times
                                                   
-9---------------9----------------5----------------.--7---.--9---------------9-----------
-7-7-7-7-7-7-7-7-7-7-7-7-7-7-7-7--3-3-3-3-3-3-3-3--3--5-5-5--7-7-7-7-7-7-7-7-7-7-7-7-7-7-
-0-----------------------------------------------------------0---------------------------
-----------------------------------------------------------------------------------------
 faster
            
-----5----------------.-.------9---------------9------------------5----------------.-----
7-7--3-3-3-3-3-3-3-3--3-5-77-5-7-7-7-7-7-7-7-7-7-7-7-7-7-7-7-7-7--3-3-3-3-3-3-3-3--5-5-5-
-------------------------------0---------------------------------------------------------
-----------------------------------------------------------------------------------------

------9---------------9----------------5----------------.----------|--9------------------
77-5--7-7-7-7-7-7-7-7-7-7-7-7-7-7-7-7--3-3-3-3-3-3-3-3--5-5-5-77-5-|.-7--7-7-7--7-7-7--7-
------0------------------------------------------------------------|.-0------------------
-------------------------------------------------------------------|---------------------
                                                                   guitar solo 1 (slower)

---------7-------------5------7------9---------------------------7-------------5------7--
7-7--7-7-7-------------3--3-3-5--5-5-7--7-7-7--7-7-7--7-7-7--7-7-7-------------3--3-3-5--
---------5--5-5-5--5-5---------------0---------------------------5--5-5-5--5-5-----------
-----------------------------------------------------------------------------------------

-----|--9-----------------------------5---------------7---------------9------------------
5-5-.|.-7--7-7-7-7-7-7-7-7-7-7-7-7-7--3--3-3-3-3-3-3--5--5-5-5-5-5-5--7--7-7-7-7-7-7-7-7-
----.|.-0-------------------------------------------------------------0------------------
-----|-----------------------------------------------------------------------------------
        Guitar solo 2 (faster)

---------5---------------7----------------|--9-------------------------------5-----------
7-7-7-7--3--3-3-3-3-3-3--5--5-5-5-5-5-5--.|.-7--7-7-7-7-7-7-7-7-7-7-7-7-7-7--3--3-3-3-3-3
-----------------------------------------.|.-0-------------------------------------------
------------------------------------------|----------------------------------------------
                                             guitar solo 3
                                                                        .     .
-----7----------------9--------------------------------7----------------5-----7-------|
-3---5--5-5-5-5-5-5---7--7-7-7-7-7-7-7-7-7-7-7-7-7-7---7----------------3-3-3-5-5-5--.|
----------------------0--------------------------------5--5-5-5-5-5-5----------------.|
--------------------------------------------------------------------------------------|

|--9---------------7---------------5---------------7----------------|-9---------------7--
|.-7--7-7-7-7-7-7--7---------------3--3-3-3-3-3-3--5--5-5-5-5-5-5--.|-7--7-7-7-7-7-7--7--
|.-0---------------5--5-5-5-5-5-5----------------------------------.|-0---------------5--
|-------------------------------------------------------------------|--------------------
  "a hurried time..."                                 play 3 times

-------------5---------------7-------------------------------9-9-9-9-9--9-9-9-9-9---5-5-5
-------------3--3-3-3-3-3-3--5--5-5-5-5-5-5-5-5-5-5-5-5-5-5--7-7-7-7-7--7-7-7-7-7---3-3-3
5-5-5-5-5-5--------------------------------------------------0-0-0-0-0--0-0-0-0-0--------
-----------------------------------------------------------------------------------------

-5-5--5-5-5-5-5---7-7-7-7-7--7-7-7-7-7---7-7-7-7-7--7-7-7-7-7---9-------------------5----
-3-3--3-3-3-3-3---5-5-5-5-5--5-5-5-5-5---7-7-7-7-7--7-7-7-7-7---7--7-7-7-7-7-7-7-7--3--3-
-----------------------------------------5-5-5-5-5--5-5-5-5-5---0------------------------
-----------------------------------------------------------------------------------------

-------------7-------------------7-------------------9-------------------5---------------
3-3-3-3-3-3--5--5-5-5-5-5-5-5-5--7-------------------7--7-7-7-7-7-7-7-7--3--3-3-3-3-3-3-3
---------------------------------5--5-5-5-5-5-5-5-5--0-----------------------------------
-----------------------------------------------------------------------------------------

----7-------------------7-------------------9---------------------------------9----------
-3--5--5-5-5-5-5-5-5-5--7-------------------7-7-7-7-7-7-7-7-7-7-7-7-7-7-7-7-7-7-7-7-7-7-7
------------------------5--5-5-5-5-5-5-5-5--0--------------------------------------------
-----------------------------------------------------------------------------------------

----------------------5--------------------------------7-----------------------------7---
-7-7-7-7-7-7-7-7-7-7--3-3-3-3-3-3-3-3-3-3-3-3-3-3-3-3--7---------------------------5-----
-------------------------------------------------------5-5-5-5-5-5-5-5-5-5-5-5-5-5-------
-----------------------------------------------------------------------------------------

9-------------------------------9--------------------------------5-----------------------
7-7-7-7-7-7-7-7-7-7-7-7-7-7-7-7-7-7-7-7-7-7-7-7-7-7-7-7-7-7-7-7--3-3-3-3-3-3-3-3-3-3-3-3-
0----------------------------------------------------------------------------------------
-----------------------------------------------------------------------------------------

---------7-----------------------7----9---9---9---9---9---9---9---9----------------------
3-3-3-3--7--------------------5-----7---7---7---7---7---7---7---7-------7---7---7---7----
---------5--5--5--5--5--5--5------------------------------------------5---5---5---5------
-----------------------------------------------------------------------------------------
           ritard

--5-------7-------9---9---9---9---9---9---9---9-----------------------5-------7--------9-
3---3---5---5---7---7---7---7---7---7---7---7-------7---7---7---7---3---3---5---5---7----
--------------------------------------------------5---5---5---5--------------------------
-----------------------------------------------------------------------------------------

----9---+------------------||
-7------7------------------||
--------0------------------||
---------------------------||
Comments