Iron Maiden - Montsegur Chords & Tabs

 

Montsegur Chords & Tabs

Iron Maiden Chords & Tabs

Version: 2 Type: Tab 0 ratings
1 star 2 stars 3 stars 4 stars 5 stars
comments

Montsegur Tab

   

Song:Montsegur[solo]
Band:Iron Maiden
Album:Dance Of Death                              Tabbed by Randy Rhoads_1


b:bend
h:hammer on
p:pull off
x:rake
P.M.:palm mute
P.H.:pinched harmonic     Tuning[low to high]:E A D g b E

                  P.H.---|
e|----------------------------------|
b|----------------------------------|
g|---2b--[2]--2b----2b--2h3p2p0---0-|
D|--x----------------------------2--|
A|-x--------------------------------|
E|----------------------------------|


e|----------------------------------|
b|-3b--3b---3b\3p1h3p1p0---0h1h3p1p0|
g|------------------------x---------|
D|-----------------------x----------|
A|----------------------------------|
E|----------------------------------|

         P.M.-------|
e|----------------------------------|
b|----------------------------------|
g|----------------------------------|
D|-2-------2-0----------------------|
A|-------------2-3-0----------------|
E|----------------------------------|


e|---10b---10b---10-8-7-8-7h8p7-----------|
b|--x--------------------------10-8\7-----|
g|-x----------------------------------9-8-|
D|----------------------------------------|
A|----------------------------------------|
E|----------------------------------------|


e|-------------------------------------------------7h8p7----8-10b-|
b|---------------------------------7h8p7----7h8h10-------10-------|
g|-9p8------8----8h9p8----8h9p8----------10-----------------------|
D|-----7-10---10-------10-------10--------------------------------|
A|----------------------------------------------------------------|
E|----------------------------------------------------------------|

[ Tab from: http://www.guitartabs.cc/tabs/i/iron_maiden/montsegur_tab_ver_2.html ]
e|------------------------12-14-15-17-15-17b----17b--17-15-14-15p14-----|
b|---15b---[15]---15b-----------------------------------------------15b-|
g|--x-------------------------------------------------------------------|
D|-x--------------------------------------------------------------------|
A|----------------------------------------------------------------------|
E|----------------------------------------------------------------------|


e|-12p0h10p0h8p0h7p0------------------------------------------|
b|------------------10p0h8p0h7p0------------------------------|
g|------------------------------9p0h7p0h5p0h4p0---------------|
D|---------------------------------------------7p0h5p0---4-4--|
A|------------------------------------------------------------|
E|------------------------------------------------------------|

   P.M.-------|  ---------|          ------------------------|
e|----------------------------------------------------------------------|
b|----------------------------------------------------------------------|
g|---------------------------------------------4h5h7p5p4----------------|
D|-4h5p4---4--4h5p4---4-5---4---4h5p4---4h5h7-----------7p5p4---4h5h7p4-|
A|-------7---7-------7-----7---7-------7-----------------------7--------|
E|----------------------------------------------------------------------|


e|-------------|
b|-------------|
g|-------------|
D|-------------|
A|-7p5---------|
E|-----7p5p2p0-|              Maiden Rule!
 
                            
      MM     MM AAAAA I DDDDD      EEEEEE  NNNNN    NNNN
      M M   M M A   A I D    D     E        N   N   N  N
      M  M M  M A   A I D     D    E         N    N N  N
      M   M   M AAAAA I D      D   EEEEEE    N N   N   N
      M       M A   A I D       D  E         N N N     N
      M       M A   A I D        D  E        N N  N    N
      M       M A   A I DDDDDDDDD    EEEE    NNN   NNNNN
Comments