Iron Maiden - Man On The Edge Chords & Tabs

 

Man On The Edge Chords & Tabs

Iron Maiden Chords & Tabs

Version: 3 Type: Tab 0 ratings
1 star 2 stars 3 stars 4 stars 5 stars
comments

Man On The Edge Tab

MAN ON THE EDGE
Iron Maiden


These are the chords for the intro:

E-------0--|--(0)--|--0--|--(0)--|--0--|--0--|--0--|--(0)--|------------|
B-------1--|--(1)--|--1--|--(1)--|--3--|--0--|--1--|--(1)--|------------|
G---4:--2--|--(2)--|--0--|--(0)--|--2--|--0--|--2--|--(2)--|------------|
D---4:--2--|--(2)--|--3--|--(3)--|--0--|--2--|--2--|--(2)--|------------|
A-------0--|--(0)--|--3--|--(3)--|-----|--2--|--0--|--(0)--|------------|
E----------|-------|--1--|--(1)--|-----|--0--|-----|-------|------------|

This is the lead part for the intro:

E----------------------|--------------|----------------------|----------|
B----------------------|--------------|----------------------|----------|
G---4:--9--7--5--4-----|-----9--7--5--|--(5)--9--7--5--4-----|----------|
D---4:--------------5--|--7-----------|-------------------5--|----------|
A----------------------|--------------|----------------------|----------|
E----------------------|--------------|----------------------|----------|

E---------------|----------------------|----------------------|---------|
B---------------|----------------------|----------------------|---------|
G------9--7--5--|--(5)--9--7--5--4-----|-------9--7--5--4-----|---------|
D---7-----------|-------------------5--|--(5)--------------5--|---------|
A---------------|----------------------|----------------------|---------|
E---------------|----------------------|----------------------|---------|

E-----------------------|--------------|--------------------------------|
B-----------------------|--------------|--------------------------------|
G--------9--7--5--4-----|-----9--7--5--|--------------------------------|
D---(5)--------------5--|--7-----------|--------------------------------|
A-----------------------|--------------|--------------------------------|
E-----------------------|--------------|--------------------------------|

Then the fast part starts (play twice):

E----------------------|-----------|-----------------|-----------|------|
B----------------------|-----------|-----------------|-----------|------|
G---4:-----7-----5-----|--------5--|-----7-----5-----|--4-----5--|------|
D---4:-----7-----5-----|--7-----5--|-----7-----7-----|--5-----5--|------|
A-------0-----0-----0--|--7--0-----|--0-----0-----0--|-----0-----|------|
E----------------------|-----------|-----------------|-----------|------|

This is the verse riff (play twice):

E-----------------------|-----------------|----------------------|
B-----------------------|-----------------|----------------------|
G---4:------------------|-----------------|----------------------|
D---4:------------------|-4---------------|----------------------|
A-------0h5-5-5---5-5-5-|-----5-5---5-5-5-|----------------------|
E-----------------------|-----------------|----------------------|

E-------------------|-----------------|------------------|-----|
B-------------------|-----------------|------------------|-----|
G-------------------|-----------------|------------------|-----|
D---5---------------|-7---------------|------------------|-----|
A-------5-5---5-5-5-|-----5-5---5-5-5-|------------------|-----|
E-------------------|-----------------|--0h5-5-5---5-5-5-|-----|

E-------------------|-----------------|-----------------|-------|
B-------------------|-----------------|-----------------|-------|
G-------------------|-----------------|-----------------|-------|
D-------------------|-----------------|-----------------|-------|
A---4---------------|-5---------------|-7---------------|-------|
E-------5-5---5-5-5-|-----5-5---5-5-5-|-----5-5---5-5-5-|-------|

This is the prechorus riff:

E------------------------|-----------------|------------------------|
B------------------------|-----------------|------------------------|
G---4:-------------------|-----------------|------------------------|
D---4:-------------------|-----------------|------------------------|
A------------------------|-----------------|------------------------|
E-------0---0-0---0-0-0--|-0---0-0---0-0-0-|------------------------|

                                       3x
E-------------------|------------------||-----------------|-----|
B-------------------|------------------||-----------------|-----|
G-------------------|-----------------*||-----------------|-----|
D-------------------|-5---5-5---5-5-5-*||-7---7-7---7-7-7-|-----|
A---3---3-3---3-3-3-|-3---3-3---3-3-3--||-5---5-5---5-5-5-|-----|
E---1---1-1---1-1-1-|------------------||-----------------|-----|

                                                             4x
E-------------------||--------------------|------------------||------|
B-------------------||--------------------|------------------||------|
G-------------------||*-------------------|-----------------*||------|
D---7---7-7---7-7-7-||*--9-----10----12---|----10-----9--7--*||------|
A---5---5-5---5-5-5-||---7---7-7---7-7----|-7--7---7--7--7---||------|
E-------------------||--------------------|------------------||------|

This is the chorus riff:

E----------|-------|-----|-------|-----|-------|--|
B----------|-------|-----|-------|-----|-------|--|
G---4:--2--|--(2)--|-----|-------|--7--|--(7)--|--|
D---4:--2--|--(2)--|--3--|--(3)--|--7--|--(7)--|--|
A-------0--|--(0)--|--3--|--(3)--|--5--|--(5)--|--|
E----------|-------|--1--|--(1)--|-----|-------|--|

E-------------------|------------------||---------|
B-------------------|------------------||---------|
G-------------------|-----------------*||---------|
D-------------------|-----------------*||---------|
A---5-7-7-7---7-7-7-|-5-7-7-7---7-7-7--||---------|
E-------------------|------------------||---------|

E-------------------|-----------------|-----------|
B-------------------|-----------------|-----------|
G-------------------|-----------------|-----------|
D-------------------|-----------------|-----------|
A---5-7-7-7---7-7-7-|-5-7-7-7---7-7-7-|-----------|
E-------------------|-----------------|-----------|

Then it goes back to the verse riff and repeats from there up until the
above part (don't play the last two bars of the chorus riff). Then there
is an interlude. This is the rhythm for the interlude (straight 8th's):

                                 4x                                4x
E--------------------------------||--||----------------------------|-|
B--------------------------------||--||----------------------------|-|
G---4:--------------------------*||--||*--------------------------*|-|
D---4:--2--2--2--2--2--2--2--2--*||--||*--4--4--4--4--4--4--4--4--*|-|
A-------0--0--0--0--0--0--0--0---||--||---2--2--2--2--2--2--2--2---|-|
E--------------------------------||--||----------------------------|-|

                                  4x                                4x
E---||----------------------------||--||----------------------------|-|
B---||----------------------------||--||----------------------------|-|
G---||*--------------------------*||--||*--------------------------*|-|
D---||*--7--7--7--7--7--7--7--7--*||--||*--9--9--9--9--9--9--9--9--*|-|
A---||---5--5--5--5--5--5--5--5---||--||---7--7--7--7--7--7--7--7---|-|
E---||----------------------------||--||----------------------------|-|

                                 2x                                2x
E--------------------------------||--||----------------------------|-|
B--------------------------------||--||----------------------------|-|
G---4:--------------------------*||--||*--------------------------*|-|
D---4:--2--2--2--2--2--2--2--2--*||--||*--4--4--4--4--4--4--4--4--*|-|
A-------0--0--0--0--0--0--0--0---||--||---2--2--2--2--2--2--2--2---|-|
E--------------------------------||--||----------------------------|-|

                                  2x                                4x
E---||----------------------------||--||----------------------------|-|
B---||----------------------------||--||----------------------------|-|
G---||*--------------------------*||--||*--------------------------*|-|
D---||*--7--7--7--7--7--7--7--7--*||--||*--9--9--9--9--9--9--9--9--*|-|
A---||---5--5--5--5--5--5--5--5---||--||---7--7--7--7--7--7--7--7---|-|
E---||----------------------------||--||----------------------------|-|

This is the lead part for the interlude (play once with all the repeats,
then play it all again but skip the first 3 repeats):

E----------------------------------|-----------------------------||-----|
B----------------------------------|-----------------------------||-----|
G---4:-----------------------------|----------------------------*||-----|
D---4:--7---------9---------10--7--|-----9---------7------------*||-----|
A----------10--7-----10--7---------|--7-----10--7-----10--7--7---||-----|
E----------------------------------|-----------------------------||-----|

E---||-------------------------------|-------------------------------||
B---||-------------------------------|-------------------------------||
G---||*------------------------------|------------------------------*||
D---||*--9---------11---------12--9--|------11---------9------------*||
A---||------12--9------12--9---------|---9------12--9-----12--9--9---||
E---||-------------------------------|-------------------------------||

E---||---------------------------|----------------------------||
B---||---------------------------|----------------------------||
G---||*--------------------------|---------------------------*||
D---||*--12-------14-------15-12-|------14-------12----------*||
A---||------15-12----15-12-------|---12----15-12----15-12-12--||
E---||---------------------------|----------------------------||

E-------------------------------|----------------------------||
B-------------------------------|----------------------------||
G---4:--------------------------|---------------------------*||
D---4:--14-------16-------17-14-|------16-------14----------*||
A----------17-14----17-14-------|---14----17-14----17-14-14--||
E-------------------------------|----------------------------||

Then comes the solo. First Guitar 1 has the solo, and Guitar 2
plays this:

E-------||-------------------|-----------------|-------------|
B-------||-------------------|-----------------|-------------|
G---4:--||*------------------|-----------------|-------------|
D---4:--||*------------------|-----------------|-------------|
A-------||---2---2-2---2-2-2-|-2-2-2-2-2-2-2-2-|-------------|
E-------||-------------------|-----------------|-------------|

                                   4x
E-------------------|--------------||------------------------|
B-------------------|--------------||------------------------|
G-------------------|-------------*||------------------------|
D-------------------|-------------*||------------------------|
A---2---2-2---2-2-2-|-0---4---0----||------------------------|
E-------------------|--------------||------------------------|

Then guitar 2 plays the solo, while Guitar 1 plays this:

E-------||-------------------|-----------------|-------------------|
B-------||-------------------|-----------------|-------------------|
G---4:--||*------------------|-----------------|-------------------|
D---4:--||*------------------|-----------------|-------------------|
A-------||---5---5-5---5-5-5-|-5---5-5---5-5-5-|-------------------|
E-------||-------------------|-----------------|-------------------|
[ Tab from: http://www.guitartabs.cc/tabs/i/iron_maiden/man_on_the_edge_tab_ver_3.html ]
E-------------------|--------------||------------------|--------------|
B-------------------|--------------||------------------|--------------|
G-------------------|-------------*||------------------|--------------|
D-------------------|-----2-------*||------------------|--------------|
A---5---5-5---5-5-5-|-3-------3----||--7---7-7---7-7-7-|--------------|
E-------------------|--------------||------------------|--------------|

E-------------------|-----------------|-------------|----------------|
B-------------------|-----------------|-------------|----------------|
G-------------------|-----------------|-------------|----------------|
D-------------------|-----------------|-----4-------|----------------|
A---7---7-7---7-7-7-|-7---7-7---7-7-7-|-5-------5---|----------------|
E-------------------|-----------------|-------------|----------------|

E-------------------|-----------------|-----------|------------|-----|
B-------------------|-----------------|-----------|------------|-----|
G-------------------|-----------------|-----------|------------|-----|
D-------------------|-----------------|--9--10----|--11--12----|-----|
A---7---7-7---7-7-7-|-7---7-7---7-7-7-|--7--8-----|--9---10----|-----|
E-------------------|-----------------|-----------|------------|-----|

Then it goes all the way back to where the fast part begins, and repeats
from there all the way until the end of the chorus (play the chorus
twice though). Then at the end of the chorus it plays this twice more:

E-------------------|-----------------|-----------|
B-------------------|-----------------|-----------|
G-------------------|-----------------|-----------|
D-------------------|-----------------|-----------|
A---5-7-7-7---7-7-7-|-5-7-7-7---7-7-7-|-----------|
E-------------------|-----------------|-----------|

Then it plays this:

E----------|------|------|------|---------------------------------------|
B----------|------|------|------|---------------------------------------|
G---4:--9--|--10--|--11--|--12--|---------------------------------------|
D---4:--9--|--10--|--11--|--12--|---------------------------------------|
A-------7--|--8---|--9---|--10--|---------------------------------------|
E----------|------|------|------|---------------------------------------|

E----------------------------------|----------------------------|-------|
B----------------------------------|----------------------------|-------|
G---4:-----------------------------|----------------------------|-------|
D---4:--7---------9---------10--7--|-----9---------7------------|-------|
A----------10--7-----10--7---------|--7-----10--7-----10--7--7--|-------|
E----------------------------------|----------------------------|-------|

E-----
B-----
G-----
D--7--
A--7--
E--5--

Here's the first solo:
        gradually release bend
E--------------------------|-----------|--------------------------------|
B--------------------------|-----------|--------------------------------|
G---4:---------------------|-----------|--------------------------------|
D---4:--9^--9--9--9--9--9--|--9--9--7--|--------------------------------|
A--------------------------|-----------|--------------------------------|
E--------------------------|-----------|--------------------------------|

E------------------------------|-----------------|----------------------|
B------------------------------|-----------------|----------------------|
G------------------------------|-----------------|----------------------|
D---9--7--9--6--7--6--7--6-----|-----------------|----------------------|
A---------------------------9--|--7-----7--9~~~--|----------------------|
E------------------------------|-----9-----------|----------------------|

E---------------------------|-----------------|-------------------------|
B---------------------------|-----------------|-------------------------|
G---------------------------|-----------6-----|-------------------------|
D---------7-----7-----7-----|--7-----------9--|-------------------------|
A---9--9-----9-----9-----0--|-----9--9--------|-------------------------|
E---------------------------|-----------------|-------------------------|

E---------------------------------|-----------|-------------------------|
B---------------------------------|-----------|-------------------------|
G---7-----9--7-----6--7--7--6-----|--7--9--0--|-------------------------|
D------9--------9--------------9--|--------0--|-------------------------|
A---------------------------------|-----------|-------------------------|
E---------------------------------|-----------|-------------------------|

E--------------------------------|--------------------------------------|
B--------12------12--12------12--|--------------------------------------|
G---14^------14----------14------|--------------------------------------|
D--------------------------------|--------------------------------------|
A--------------------------------|--------------------------------------|
E--------------------------------|--------------------------------------|

E---------------------------------------|-------------------------------|
B---12------12------12--12--15--12------|-------------------------------|
G-------14------14------------------14--|-------------------------------|
D---------------------------------------|-------------------------------|
A---------------------------------------|-------------------------------|
E---------------------------------------|-------------------------------|

E-----------------------------------------------|-----------------------|
B---12------12--14--12------12------12--15--12--|-----------------------|
G-------14--------------14------14--------------|-----------------------|
D-----------------------------------------------|-----------------------|
A-----------------------------------------------|-----------------------|
E-----------------------------------------------|-----------------------|

E----------------------|---------------------------|--------------------|
B-------12--15^--(15)--|--15^--15--14--12------10--|--------------------|
G---14-----------------|-------------------11------|--------------------|
D----------------------|---------------------------|--------------------|
A----------------------|---------------------------|--------------------|
E----------------------|---------------------------|--------------------|

E---------------------------------|-----------------------|-------------|
B---10--9--7------7---------------|-----------------------|-------------|
G-------------10-----10--9--7-----|--7-----9--7--9--8-----|-------------|
D------------------------------9--|-----9--------------9--|-------------|
A---------------------------------|-----------------------|-------------|
E---------------------------------|-----------------------|-------------|

E----------------------------|------------------------------------------|
B----------------------------|------------------------------------------|
G---7------------------------|------------------------------------------|
D------9---------------------|------------------------------------------|
A---------9--8--7------7--0--|------------------------------------------|
E------------------10--------|------------------------------------------|

This is the second solo:

        hold bend and dive w/bar
E----------------------------------------|----------------|-------------|
B-------13^--13--13--13--13--13--13--13--|--(13)--13--11--|-------------|
G---4:-----------------------------------|----------------|-------------|
D---4:-----------------------------------|----------------|-------------|
A----------------------------------------|----------------|-------------|
E----------------------------------------|----------------|-------------|

E-----------------------------------------------|-----------|-----------|
B---13--11--10--11--10--11--10------------------|-----------|-----------|
G-------------------------------12--10--12--10--|--12\5/12--|-----------|
D-----------------------------------------------|-----------|-----------|
A-----------------------------------------------|-----------|-----------|
E-----------------------------------------------|-----------|-----------|

E-------------------------------------------|---------------------------|
B---15--13------15--13--15--13------15--13--|---------------------------|
G-----------14------------------14----------|---------------------------|
D-------------------------------------------|---------------------------|
A-------------------------------------------|---------------------------|
E-------------------------------------------|---------------------------|

                                                     hold bend
E-----------------------------------------|-------|--------|------------|
B---15--13------15--13h15p13--15--13--15--|--17^--|--(17)--|------------|
G-----------14----------------------------|-------|--------|------------|
D-----------------------------------------|-------|--------|------------|
A-----------------------------------------|-------|--------|------------|
E-----------------------------------------|-------|--------|------------|

E--------12--12------12-----------------15--|---------------------------|
B---15^----------15------15^--(15)--12------|---------------------------|
G-------------------------------------------|---------------------------|
D-------------------------------------------|---------------------------|
A-------------------------------------------|---------------------------|
E-------------------------------------------|---------------------------|

E---12------12--15--12--15------------15--12------12--|-----------------|
B-------15------------------15^--15^----------15------|-----------------|
G-----------------------------------------------------|-----------------|
D-----------------------------------------------------|-----------------|
A-----------------------------------------------------|-----------------|
E-----------------------------------------------------|-----------------|

E---15------------------------------------------|-----------------------|
B-------13--15--13--12--13--12--13--12----------|-----------------------|
G---------------------------------------14--12--|-----------------------|
D-----------------------------------------------|-----------------------|
A-----------------------------------------------|-----------------------|
E-----------------------------------------------|-----------------------|

                                            hold bend
E---------------------------|--12---12---|--------|--12---13---|--------|
B---------------15---0--15--|--15^--15^--|--(15)--|--15^--16^--|--------|
G---14--12--12--15^---------|------------|--------|------------|--------|
D---------------------------|------------|--------|------------|--------|
A---------------------------|------------|--------|------------|--------|
E---------------------------|------------|--------|------------|--------|

                         hold bend......
E---14---15---|-------|--------|--------|-------------------------------|
B---17^--18^--|--20^--|--(20)--|--(20)--|-------------------------------|
G-------------|-------|--------|--------|-------------------------------|
D-------------|-------|--------|--------|-------------------------------|
A-------------|-------|--------|--------|-------------------------------|
E-------------|-------|--------|--------|-------------------------------|
Comments