Iron Maiden - Man On The Edge Chords & Tabs

 

Man On The Edge Chords & Tabs

Iron Maiden Chords & Tabs

Version: 1 Type: Bass Tab 0 ratings
1 star 2 stars 3 stars 4 stars 5 stars
comments

Man On The Edge Bass Tab

   
Iron Maiden - Man On The Edge
Submitted By: Dan
EMail: argybahji@hotmail.com[Intro]
G|--------------------------------------------------------
D|--------------------------------------------------------
A|--------------------------------------------------------
E|--5-------------1------------10-----12------5-----------

G|--------------------------------------------------------
D|--------------------------------------------------------
A|--5-3-0-3--333--5-3-2-3--333--5-3-0-3--333--5-3-2-3--333
E|--------------------------------------------------------
                                           
[Verse Part 1] 	('The freeway is jammed...')
G|--------------------------------------------------------
D|--------4------5------7---------------------------------
A|-3-5555---5555---5555---5555--------4------5------7-----
E|-----------------------------3-5555---5555---5555---5555

[Verse Part 2] 	('A briefcase, a lunch...')
G|--------------------------------------------------------
D|--------------------------------------------------------
A|----------------------33333-----------------------33333-
E|-00000--00000--11111---------00000--00000--11111--------

[Pre-Chorus] 	('Nothing is fair...')
G|--------------------------------------------------------
D|--------------------------------------------------------
A|--55555-55555-77777-77777-77777-77777-77777-77777-77777-
E|--------------------------------------------------------

G|--------------------------------------------------------
D|--------12-12-10-10-9-9-9-7-7-7-------------------------
A|--77777-------------------------------------------------
E|--------------------------------------------------------

[Chorus] 	('Falling down...')
G|--------------------------------------------------------
D|--------------------------------------------------------
A|------------------------------55555-55555---77777-77777-
E|--55555-55555---11111-11111-----------------------------


[Guitar Solo]
(A)
G|--------------------------------------------------------
D|--------------------------------------------------------
A|--------------------------------------------------------
E|-55555-55555---55555-55555---77777-77777---77777-77777--
[ Tab from: http://www.guitartabs.cc/tabs/i/iron_maiden/man_on_the_edge_btab.html ]
G|--------------------------------------------------------
D|--------------------------------------------------------
A|-55555-55555---55555-55555---77777-77777---77777-77777--
E|--------------------------------------------------------

G|--------------------------------------------------------
D|--------------------------------------------------------
A|-----------------------------55555-55555---77777-77777--
E|-55555-55555---77777-77777------------------------------
							 --\
G|--------------------------------------------------------  \
D|--------------------------------------------------------   |
A|-------------------------------------------------4------   |- x4
E|--77777-77777---77777-77777---77777-77777---5---------5-  /
							 --/

							 --\
G|--------------------------------------------------------  \
D|-------------------------------------------------2------   |
A|--55555-55555---55555-55555---55555-55555---3---------3-   |- x2
E|--------------------------------------------------------  /
							 --/

G|--------------------------------------------------------
D|--------------------------------------------------------
A|--------------------------------------------------------
E|--33333-33333-33333-33333-33333-2-5-2-33333-33333-33333-

G|--------------------------------------------------------
D|--------------------------------------------------------
A|--------------------------------------------------------
E|--33333-33333-5-6-7-55555-55555-55555-55555-55555-55555-

G|--------------------------------------------------------
D|--------------------------------------------------------
A|--55555-55555-55555-55555-55555-55555-55555-55555-55555-
E|--------------------------------------------------------


[Outro]
G|--------------------------------------------------------
D|--------------------------------------------------------
A|--------------------------------------------------------
E|-00000-000000---11111-11111---22222-22222---33333-33333-

G|--------------------------------
D|--------------------------------
A|--55555-55555---55555-55555---5-
E|--------------------------------


Structure
==================
Intro		x1
Verse Part 1	x2
Verse Part 2	x2
Pre-Chorus	x1
Chorus		x2
Verse Part 1	x2
Verse Part 2	x2
Pre-Chorus	x1
Chorus		x2
Guitar Solo 	x1
Verse Part 1	x2
Verse Part 2	x2
Pre-Chorus	x1
Chorus		x4
Outro		x1
Comments