Iron Maiden - Lord Of The Flies Chords & Tabs

 

Lord Of The Flies Chords & Tabs

Iron Maiden Chords & Tabs

Version: 2 Type: Tab 0 ratings
1 star 2 stars 3 stars 4 stars 5 stars
comments

Lord Of The Flies Tab

   
This is my tab of the song Lord of the flies by Iron Maiden

               P = pull off
               H = hammer on
               B = bend
               R = Release
               ~ = vibrato
               X = finger mute

Intro
|--------------------------------------|
|--------------------------------------|
|----4-00---7-00--9-00--7-00--4p0------|
|----4-00---7-00--9-00--7-00--4p0------|
|--------------------------------------|
|--------------------------------------|

Guitar2
|---------------------------------------|
|---------------------------------------|
|---------------------------------------|
|---------------------------------------|
|--2-Repeat as many time as you haft to-|
|--0------------------------------------|

Guitar1
|------------------------------|
|------------------------------|
|------------------------------|
|----7--12--9--7---------------|
|----9--9---7--9---------------|
|------------------------------|

Guitar2 
  (X6)  I dont care for this world anymore
|------------------------------------------|
|------------------------------------------|
|------------------------------------------|
|------------------------------------------|
|-4--------------------------------2-------|
|-2222222222222222222222222222222--0000----|

guitar1 pre chorus
[ Tab from: http://www.guitartabs.cc/tabs/i/iron_maiden/lord_of_the_flies_tab_ver_2.html ]
|---------------------------------------------------------------------------|
|---------------------------------------------------------------------------|
|---7~---9~---9x99---7~--11---11-11-11-11-9-7---9~-9x99--7------------------|
|---7~---9~---9x99---7~--11---11-11-11-11-9-7---9~-9x99--7---444444--444444-|
|---5~---7~---7x77---5~--9----9--9--9--9--7-5---7~-7x77--5---444444--444444-|
|------------------------------------------------------------222222--222222-|

Chorus
 (x2)
|-------------------------------------------|
|-------------------------------------------|
|-11---7-------9---7-7-7-7---9-----11-------|
|-11---7---7---9---7-7-7-7---9-----11-------|
|-9----5---7---7---5-5-5-5---7-----9--------|
|----------5--------------------------------|

Solo
Played by ear but pretty close I think
|------------------------------------------------------------|
|---------------------------------15--17b17b17b17b--21-21b21b|
|----15--17b17b17b17b-17--15--14-----------------------------|
|------------------------------------------------------------|
|------------------------------------------------------------|
|------------------------------------------------------------|


|-------------------------------------------------------------|
|-21-19-17-16-17----------------------------------------------|
|------------------1212b11r--11-12b---------------------------|
|--------------------------12-------11-11-11-11-11-11-11-11-9-|
|-------------------------------------------------------------|
|-------------------------------------------------------------|


|-----19b19b19b-19-17-15-14-15-14--------|
|---------------------------------15-17--|
|----------------------------------------|
|----------------------------------------|
|----------------------------------------|
|----------------------------------------|




|----------------------------------------------------|
|--------------------------------------------7-9-7---|
|------6-7-9-7-6---6-7-9-7-6---6-7-9-7-6---9-------9-|
|----------------------------------------------------|
|----------------------------------------------------|
|----------------------------------------------------|

Enjoy ;)
Comments