Iron Maiden - Journeyman Chords & Tabs

 

Journeyman Chords & Tabs

Iron Maiden Chords & Tabs

Version: 1 Type: Bass Tab 0 ratings
1 star 2 stars 3 stars 4 stars 5 stars
comments

Journeyman Bass Tab

Iron Maiden "Journeyman" 7:06

(0:00)
G----------------
D----------------
A-0--------------
E----------------

(0:09)
G--------------------------
D--------------------------
A-3-2-5-3--7-5-3-2---------
E--------------------------

(0:42)
G---------------------------------------------------
D---------------------------------------------------
A----2-3-2-0---0------------------------------------
E-1----------3--------------------------------------

(0:59)
G---------------------------------------
D---------------------------------------
A---------------------------------------
E-1-1-1-1-1-1-1--5-5-5-5-5-5------------

(1:30)
G----------------------------------------------------------
D----------------------------------------------------------
A-3--5--0---3--5-----3--5--7--5----0-2-3--5--3-2-0---------
E-----------------3----------------------------------------

(2:01)
G------------------------------
D------------------------------
A-5--7-8--3--1-3---------------
E------------------------------

(2:31)
G----------------
D----------------
A-5--------------
E----------------

(2:35)
G---------------------------------------
D---------------------------------------
A---------------------------------------
E-1-1-1-1-1-1-1--5-5-5-5-5-5------------
[ Tab from: http://www.guitartabs.cc/tabs/i/iron_maiden/journeyman_btab.html ]
(3:19)
G----------------------------------------------------------
D----------------------------------------------------------
A-3--5--0---3--5-----3--5--7--5----0-2-3--5--3-2-0---------
E-----------------3----------------------------------------

(3:47)
G------------------------------
D------------------------------
A-5--7-8--3--1-3---------------
E------------------------------

(4:16)
G----------------
D----------------
A-5--------------
E----------------

(4:21)
G----------------
D----------------
A-0--------------
E----------------

(4:28)
G--------------------------
D--------------------------
A-3-2-5-3--7-5-3-2---------
E--------------------------

(5:00)
G---------------------------------------------------
D---------------------------------------------------
A-7-------------------------------------------------
E---5-7-5-7-5-7-5-7-5-7-5-7-------------------------

(5:31)
G----------------------------------------------------------
D----------------------------------------------------------
A-3--5--0---3--5-----3--5--7--5----0-2-3--5--3-2-0---------
E-----------------3----------------------------------------

(6:01)
G------------------------------
D------------------------------
A-5--7-8--3--1-3---------------
E------------------------------

(6:30)
G----------------
D----------------
A-5--------------
E----------------

(6:34-unitl end)
G--------------------------
D--------------------------
A-3-2-5-3--7-5-3-2----0----
E--------------------------

There you go. have fun! Not sure this is exactly right, but it sounds good enough. 
Comments or anything just e-mail me on... The_Jackass_Boi@hotmail.com


Comments