Iron Maiden - Ides Of March Chords & Tabs

 

Ides Of March Chords & Tabs

Iron Maiden Chords & Tabs

Version: 1 Type: Tab 0 ratings
1 star 2 stars 3 stars 4 stars 5 stars
comments

Ides Of March Tab

   
Iron Maiden 
Ides of march

 Intro
  Q=100
  E5     F#5   G5      A5B5  C5      B5   A5     G5 F#5E5
 4/4
  Gtr III
|------------|-------------|------------|-----------------|
|------------|-------------|------------|-----------------|
|-9------11--|-12----------|------------|--------12-11-9--|
|-9------11--|-12------7-9-|-10------9--|-7------12-11-9--|
|-7-------9--|-10------7-9-|-10------9--|-7------10--9-7--|
|------------|---------5-7-|--8------7--|-5---------------|


  D5     E5   F#5     G5 F#5  E5     D5   E5     D5
  Gtr I
|-----------|---------------|-----------|------------||
|-----------|---------------|-----------|------------||
|-----------|---------------|-----------|--------11--||
|-----------|---------------|-----------|------------||
|-----------|---------------|-----------|------------||
|-----------|---------------|-----------|------------||
|
| Gtr II
|-----------|---------------|-----------|------------||
|-----------|---------------|-----------|------------||
|-----------|---------------|-----------|---------7--||
|-----------|---------------|-----------|------------||
|-----------|---------------|-----------|------------||
|-----------|---------------|-----------|------------||
|
| Gtr III
|-----------|---------------|-----------|------------||
|-----------|---------------|-----------|------------||
|-7------9--|-11------12-11-|-9------7--|-9-------7--||
|-7------9--|-11------12-11-|-9------7--|-9-------7--||
|-5------7--|--9------10--9-|-7------5--|-7-------5--||
|-----------|---------------|-----------|------------||


 Theme
  E5           F#5   G5           A5 B5
    ~~~~~~~            ~~~~~~~
|------------------|--------------------|
|------------------|--------------13-15-|
|-(11)b12------14--|-(14)b16------------|
|------------------|--------------------|
|------------------|--------------------|
|------------------|--------------------|
|
|   ~~~~~~~            ~~~~~~~
|------------------|--------------------|
|------------------|--------------10-12-|
|--(7)b9-------11--|--11b12-------------|
|------------------|--------------------|
|------------------|--------------------|
|------------------|--------------------|
|
|------------------|--------------------|
|------------------|--------------------|
|---9----------11--|--12----------------|
|---9----------11--|--12-----------7--9-|
|---7-----------9--|--10-----------7--9-|
|------------------|---------------5--7-|


  C5         B5                A5      G5 F#5E5
   ~~~~~                        ~~
|----------------------------|--------------------|
|-15b17------15-(15)b17r(15)-|-13------12---------|
|----------------------------|------------14-12---|
|----------------------------|--------------------|
|----------------------------|--------------------|
|----------------------------|--------------------|
|
|  ~~~~~
|----------------------------|--------------------|
|-12b13------12-(12)b13r(12)-|-10-----------------|
|----------------------------|---------12-11--9---|
|----------------------------|--------------------|
|----------------------------|--------------------|
|----------------------------|--------------------|
|
|----------------------------|--------------------|
|----------------------------|--------------------|
|----------------------------|---------12-11--9---|
|-10----------9--------------|--7------12-11--9---|
|-10----------9--------------|--7------10--9--7---|
|--8----------7--------------|--5-----------------|


  D5      E5    F#5          G5    F#5  E5      D5      E5           D5
   ~~             ~~~~~~~                ~~               ~~~~~~~
|-------------|-----------------------|-------------|-----------------------||
|-------------|-----------------------|-------------|-----------------------||
|-11------12--|-(12)b14------14b16r14-|-12------11--|---(11)b12-------------||
|-------------|-----------------------|-------------|-----------------------||
|-------------|-----------------------|-------------|-----------------------||
|-------------|-----------------------|-------------|-----------------------||
|
|  ~~             ~~~~~~~                ~~               ~~~~~~~
|-------------|-----------------------|-------------|-----------------------||
|-------------|-----------------------|-------------|----------------15b17--||
|--7-------9--|--(9)b11------11b12r11-|--9-------7--|-7s==9-----------------||
|-------------|-----------------------|-------------|-----------------------||
|-------------|-----------------------|-------------|-----------------------||
|-------------|-----------------------|-------------|-----------------------||
|
|-------------|-----------------------|-------------|-----------------------||
|-------------|-----------------------|-------------|-----------------------||
|--7-------9--|--11----------12----11-|--9-------7--|-----9-----------7-----||
|--7-------9--|--11----------12----11-|--9-------7--|-----9-----------7-----||
|--5-------7--|---9----------10-----9-|--7-------5--|-----7-----------5-----||
|-------------|-----------------------|-------------|-----------------------||


 Guitar Solo (Smith)
  E5                                                                   F#5
  Gtr II
   ~~~~~
|-------------------------------------------------------------------------|
|-15b17-----(12)---15p12--------------------------------------------------|
|------------------------14b16r(14)p12-14b16r(14)-(14)b16r==(14)---12\----|
|-------------------------------------------------------------------------|
|-------------------------------------------------------------------------|
|-------------------------------------------------------------------------|
|
| Gtr I
|-------------------------------------------------------------------------|
|-------------------------------------------------------------------------|
|-------------------------------------------------------------------------|
|--9----------------9-------------------9---------------------------9--11-|
|--7----7-7------7--7-----7------7---7--7-----------7-----7------7--7---9-|
|-------------------------------------------------------------------------|


  G5                                                  A5    B5
            ~~~~~~~~~~~~~~~             ~~~~~                   ~~~~~~
|----------15b17=====(15)r-15-------12----------------12----------------|
|----12--------------------------------15b17-------------15p12----------|
|--------------------------------------------------------------14b16====|
|-----------------------------------------------------------------------|
|-----------------------------------------------------------------------|
|-----------------------------------------------------------------------|
|
|-----------------------------------------------------------------------|
|-----------------------------------------------------------------------|
|-----------------------------------------------------------------------|
|-12------------------12------------12----------------------------------|
|-10-10-10--------10--10---10-10-10-10-------10-10-10--7-----9----------|
|------------------------------------------------------5-----7----------|


  C5                                                       B5
    ~~~~~
|----------------------------------------------------------------|
|-------12-15p==12-----------------------------------------------|
|-(14)r--------------15-14p12--------12h14-12--------12h14-12----|
|-------------------------------14--------------14------------14-|
|----------------------------------------------------------------|
|----------------------------------------------------------------|
|
|----------------------------------------------------------------|
|----------------------------------------------------------------|
|----------------------------------------------------------------|
|----------------------------------------------------------------|
|--10----------------10--------------10--------------10-----9----|
|---8-------8-8----8--8-----8-8----8--8-----8-8----8--8-----7----|


  A5                                         G5 F#5E5
                                    ~~~~
|------------------------------------------------------|
|------------------------------------------------------|
|-12---------------------------------------------------|
|----14-12--------12-----------------------------------|
|------------14------14-12S==10---(10)-----------------|
|------------------------------------------------------|
|
|------------------------------------------------------|
|------------------------------------------------------|
|------------------------------------------------------|
|--------------------------------------------12-11-9---|
|--7---------------7----------------7--------10--9-7---|
|--5-----5-5----5--5-----5-5----5---5--5-5-5-----------|


  D5                                         E5
                                 ~~~~~
|-15p14----------------------------------------|
|-------15--------17b19========(17)r-----------|
|------------14--------------------------------|
|----------------------------------------------|
|----------------------------------------------|
|----------------------------------------------|
|
|----------------------------------------------|
|----------------------------------------------|
|----------------------------------------------|
|--7---------------7-------------7---------7-9-|
|--5-----5-5----5--5-----5-5-5---5---5-5-5-5-7-|
|----------------------------------------------|


  F#5                                     G5 F#5
                         ~~~~~~~~~~~
|-15p14-----------17b19-17-----(17)----------(17)-x--|
|-------15-------------------------------------------|
|------------14--------------------------------------|
|----------------------------------------------------|
|----------------------------------------------------|
|----------------------------------------------------|
|
|----------------------------------------------------|
|----------------------------------------------------|
|----------------------------------------------------|
|-11--------------11------------11--------12--11-----|
|--9-----9-9----9--9-----9-9-9---9--9-9-9-10---9-----|
|----------------------------------------------------|


  E5                                              D5
   ~~~~~          ~~~~~
|-------12-------------12-------15p12----12-------------------------|
|-15b17----15p12-15b17----15p12-------15----15p12-15p12-------------|
|-------------------------------------------------------15-14p12----|
|----------------------------------------------------------------14-|
|-------------------------------------------------------------------|
|-------------------------------------------------------------------|
|
|-------------------------------------------------------------------|
|-------------------------------------------------------------------|
|-------------------------------------------------------------------|
|--9--------------9--------------9-----------------7--7--7--7--7--7-|
|--7-----7--7--7--7-----7--7--7--7--------7--7--7--5--5--5--5--5--5-|
|-------------------------------------------------------------------|


  E5                                             D5
          ~~~~                                     ~~~~
|----------------------------------------------------------------||
|----------------------------------------------------------------||
|-14b16-(14)-----12----------------------------------------------||
|-------------------14-12----------------------------------------||
|---------------------------14---13-12---------------------------||
|--------------------------------------15---12---(12)------------||
|
|----------------------------------------------------------------||
|----------------------------------------------------------------||
|----------------------------------------------------------------||
|--9--------------9---------------9----------------7--7-7-7-7-7--||
|--7------7--7-7--7-----7-7----7--7-----7-7----7---5--5-5-5-5-5--||
|----------------------------------------------------------------||

[ Tab from: http://www.guitartabs.cc/tabs/i/iron_maiden/ides_of_march_tab.html ]
 Guitar Solo (Murray)
  E5                                                                                           F#5
  Gtr I
|--------------------------------------------------------------------------------------------------------|
|-12h15p12----12h15p12------12h15p12----12h15p12------12h15p12----12h15------------------------15-17b20==|
|----------14------------14----------14------------14----------14---------14---12-(12)\-14-/16-----------|
|--------------------------------------------------------------------------------------------------------|
|--------------------------------------------------------------------------------------------------------|
|--------------------------------------------------------------------------------------------------------|
|
| Gtr II
|--------------------------------------------------------------------------------------------------------|
|--------------------------------------------------------------------------------------------------------|
|--------------------------------------------------------------------------------------------------------|
|--9-------------------------9-------------------------9----------------------------9----------11--------|
|--7-----------7--7----7-----7-----------7--7----7-----7-----------7----7----7------7-----------9--------|
|--------------------------------------------------------------------------------------------------------|


  G5                                                   A5          B5
|-------------------------------------------------------------------------------|
|-(17)r-------------17b20========(17)r(17)-15h===17----15h17p15s14h15p14p12h14p=|
|-------------------------------------------------------------------------------|
|-------------------------------------------------------------------------------|
|-------------------------------------------------------------------------------|
|-------------------------------------------------------------------------------|
|
|-------------------------------------------------------------------------------|
|-------------------------------------------------------------------------------|
|-------------------------------------------------------------------------------|
|--12------------12---------------12--------------------------------------------|
|--10---10-10-10-10-10-----10-10--10-------10-10----10--7-----------9-----------|
|-------------------------------------------------------5-----------7-----------|


  C5                                                                 B5
|--------------------------------------------------------------------------|
|-12s10--------------------------------------------------------------------|
|-------12-14p12h==14---11h12p11h12p==11s==9s==11-12p11--------------------|
|-------------------------------------------------------14--------------12-|
|--------------------------------------------------------------10s12-14----|
|--------------------------------------------------------------------------|
|
|--------------------------------------------------------------------------|
|--------------------------------------------------------------------------|
|--------------------------------------------------------------------------|
|--------------------------------------------------------------------------|
|-10--------------------10------------------------10-----------10-----9----|
|--8--------8----8----8--8----------8----8---8-----8-----8-8-8--8-----7----|


  A5                                          G5 F#5E5
|-----------------------------------------------------15b17==|
|---------------------------------------------------x--------|
|-12------------------------------12-------------------------|
|----14-12---14--------------12------14----------------------|
|-----------------10-12s14-----------------------------------|
|------------------------------------------------------------|
|
|------------------------------------------------------------|
|------------------------------------------------------------|
|------------------------------------------------------------|
|---------------------------------------------12-11-9--------|
|--7---------------7---------------7----------10--9-7--------|
|--5-----5-5----5--5-----5-5----5--5----5-5-5----------------|


  D5                                        E5
|-(15)r---------------15b17-15b17-----15b17-12-|
|----------------------------------------------|
|----------------------------------------------|
|----------------------------------------------|
|----------------------------------------------|
|----------------------------------------------|
|
|----------------------------------------------|
|----------------------------------------------|
|----------------------------------------------|
|---7---------7--------7---------------7-----9-|
|---5---5-5-5-5-5-5-5--5-----5----5-5--5-----7-|
|----------------------------------------------|


  F#5                                                  G5    F#5
|-17b19-17b19-----17b19r(17)-15s==14---15p14s12h==14p==12----12----|
|---------------------------------------------------------15----15-|
|------------------------------------------------------------------|
|------------------------------------------------------------------|
|------------------------------------------------------------------|
|------------------------------------------------------------------|
|
|------------------------------------------------------------------|
|------------------------------------------------------------------|
|------------------------------------------------------------------|
|-11--------------11-------------------11--------------12----11----|
|--9-----9----9-9--9----------9-9----9--9-----9-9----9-10-----9----|
|------------------------------------------------------------------|


  E5                                                    D5
   T        T        T        T        T        T        T        T
|-19p15p12-19p15p12-19p15p12-19p15p12-19p15p12-19p15p12-17p14p10-17p14p10-|
|-------------------------------------------------------------------------|
|-------------------------------------------------------------------------|
|-------------------------------------------------------------------------|
|-------------------------------------------------------------------------|
|-------------------------------------------------------------------------|
|
|-------------------------------------------------------------------------|
|-------------------------------------------------------------------------|
|-------------------------------------------------------------------------|
|--9-----------------9-----------------9-----------------7--7--7--7--7--7-|
|--7--------7--7--7--7--------7--7--7--7--------7--7--7--5--5--5--5--5--5-|
|-------------------------------------------------------------------------|


  E5                 E5                 E5                 D5
  Gtr III
   |        |    |    |        |    |    |        |    |    |
   /        o    /    /        o    /    /        o    /    /

  Gtr I
   T        T         T        T         T        T         T        T
|-19p15p12-19p15p=12-19p15p12-19p15p=12-19p15p12-19p15p=12-17p14p10-17p14p10-||
|----------------------------------------------------------------------------||
|----------------------------------------------------------------------------||
|----------------------------------------------------------------------------||
|----------------------------------------------------------------------------||
|----------------------------------------------------------------------------||
|
| Gtr I
|----------------------------------------------------------------------------||
|----------------------------------------------------------------------------||
|----------------------------------------------------------11----------------||
|----------------------------------------------------------------------------||
|----------------------------------------------------------------------------||
|----------------------------------------------------------------------------||
|
| Gtr II
|----------------------------------------------------------------------------||
|----------------------------------------------------------------------------||
|-----------------------------------------------------------7----------------||
|----------------------------------------------------------------------------||
|----------------------------------------------------------------------------||
|----------------------------------------------------------------------------||


  E5           F#5   G5           A5 B5
  Gtr I
    ~~~~~~~            ~~~~~~~
|------------------|--------------------|
|------------------|--------------13-15-|
|-(11)b12------14--|-(14)b16------------|
|------------------|--------------------|
|------------------|--------------------|
|------------------|--------------------|
|
| Gtr II
|   ~~~~~~~            ~~~~~~~
|------------------|--------------------|
|------------------|--------------10-12-|
|---7b9--------11--|--11b12-------------|
|------------------|--------------------|
|------------------|--------------------|
|------------------|--------------------|
|
| Gtr III
|------------------|--------------------|
|------------------|--------------------|
|---9----------11--|--12----------------|
|---9----------11--|--12-----------7--9-|
|---7-----------9--|--10-----------7--9-|
|------------------|---------------5--7-|


  C5         B5                A5      G5 F#5E5
   ~~~~~                        ~~
|----------------------------|--------------------|
|-15b17------15-(15)b17r(15)-|-13------12---------|
|----------------------------|------------14-12---|
|----------------------------|--------------------|
|----------------------------|--------------------|
|----------------------------|--------------------|
|
|  ~~~~~
|----------------------------|--------------------|
|-12b13------12-(12)b13r(12)-|-10-----------------|
|----------------------------|---------12-11--9---|
|----------------------------|--------------------|
|----------------------------|--------------------|
|----------------------------|--------------------|
|
|----------------------------|--------------------|
|----------------------------|--------------------|
|----------------------------|---------12-11--9---|
|-10----------9--------------|--7------12-11--9---|
|-10----------9--------------|--7------10--9--7---|
|--8----------7--------------|--5-----------------|


  D5      E5    F#5          G5    F#5
   ~~             ~~~~~~~
|-------------|-----------------------|
|-------------|-----------------------|
|-11------12--|-(12)b14------14b16r14-|
|-------------|-----------------------|
|-------------|-----------------------|
|-------------|-----------------------|
|
|  ~~             ~~~~~~~
|-------------|-----------------------|
|-------------|-----------------------|
|--7-------9--|--(9)b11------11b12r11-|
|-------------|-----------------------|
|-------------|-----------------------|
|-------------|-----------------------|
|
|-------------|-----------------------|
|-------------|-----------------------|
|--7-------9--|--11----------12----11-|
|--7-------9--|--11----------12----11-|
|--5-------7--|---9----------10-----9-|
|-------------|-----------------------|


  E5      D5      E5
                                      >
   ~~               ~~~~~~~~~~~~~~~~~~~~~~
|-------------|-------------------|----------*|
|-------------|-------------------|----------*|
|-12------11--|---(11)b12=========|=(11)r----*|
|-------------|-------------------|----------*|
|-------------|-------------------|----------*|
|-------------|-------------------|----------*|
|
|                                     >
|  ~~               ~~~~~~~~~~~~~~~~~~~~~~
|-------------|-------------------|----------*|
|-------------|-------------------|----------*|
|--9-------7--|-7s==9-------------|--(9)-----*|
|-------------|-------------------|----------*|
|-------------|-------------------|----------*|
|-------------|-------------------|----------*|
|
|                                     >
|-------------|-------------------|----------*|
|-------------|-------------------|----------*|
|--9-------7--|-----9-------------|--(9)-----*|
|--9-------7--|-----9-------------|--(9)-----*|
|--7-------5--|-----7-------------|--(7)-----*|
|-------------|-------------------|----------*|


Comments