Iron Maiden - Holy Smoke Chords & Tabs

 

Holy Smoke Chords & Tabs

Iron Maiden Chords & Tabs

Version: 4 Type: Tab 0 ratings
1 star 2 stars 3 stars 4 stars 5 stars
comments

Holy Smoke Tab

   
Song: Holy Smoke
Band: Iron Maiden
Album: No Prayer For The Dying

Intro
---------------------------------------------------|
---------------------------------------------------|
---------------------------------------------------|
----6-7-6-9-6-7-6-9-6-7-9--------------------------|
--7-------------------------6-7-6-9-6-7-6-9-6-7-9--|
--------------------------7------------------------|

---------------------------|
---------------------------|
---------------------------|
----4-5-4-7-4--------------|
--5-------------4-5-4-7-4--|
--------------5------------|

-----------------------------------|
-----------------------------------|
-----------------------------------|
----6-7-6-9-6-7-6-9-6-7-6-9-7-6----|
--7-----------------------------7--|
-----------------------------------|

-----------------------------------|
-----------------------------------|
-----------------------------------|
----6-7-6-9-6-7-6-9-6-7-6-9-7-6----|
--7-----------------------------7--|
-----------------------------------|

-----------------------------------|
-----------------------------------|
-----------------------------------|
-----------------------------------|
----6-7-6-9-6-7-6-9-6-7-6-9-7-6----|
--7-----------------------------7--|

---------------------------|
---------------------------|
---------------------------|
----4-5-4-7-4--------------|
--5-------------4-5-4-7-4--|
--------------5------------|

-----------------------------------|
-----------------------------------|
-----------------------------------|
----6-7-6-9-6-7-6-9-6-7-6-9-7-6----|
--7-----------------------------7--|
-----------------------------------|

Verse
-----------------|
-----------------|
--9---7----------|
--9---7---5---7--|
--7---5---5---7--|
----------3---5--|

Chorus
-----------------|
-----------------|
--9-------7------|
--9---5---7---7--|
--7---5---5---7--|
------3-------5--|

Riff A
---------------|-------------------|
---------------|-------------------|
---------------|-------------------|
--2-2-0---0----|--2-2-0---0-5-4-2--|
--------2---2--|--------2----------|
---------------|-------------------|

Verse
-----------------|
-----------------|
--9---7----------|
--9---7---5---7--|
--7---5---5---7--|
----------3---5--|

Chorus
-----------------|
-----------------|
--9-------7------|
--9---5---7---7--|
--7---5---5---7--|
------3-------5--|

Riff A
---------------|-------------------|
---------------|-------------------|
---------------|-------------------|
--2-2-0---0----|--2-2-0---0-5-4-2--|
--------2---2--|--------2----------|
---------------|-------------------|
[ Tab from: http://www.guitartabs.cc/tabs/i/iron_maiden/holy_smoke_tab_ver_4.html ]
Riff B
---------------------------------------------------|
---------------------------------------------------|
---------------------------------------------------|
----6-7-6-9-6-7-6-9-6-7-9--------------------------|
--7-------------------------6-7-6-9-6-7-6-9-6-7-9--|
--------------------------7------------------------|

---------------------------|
---------------------------|
---------------------------|
----4-5-4-7-4--------------|
--5-------------4-5-4-7-4--|
--------------5------------|

-----------------------------------|
-----------------------------------|
-----------------------------------|
----6-7-6-9-6-7-6-9-6-7-6-9-7-6----|
--7-----------------------------7--|
-----------------------------------|

-----------------------------------|
-----------------------------------|
-----------------------------------|
----6-7-6-9-6-7-6-9-6-7-6-9-7-6----|
--7-----------------------------7--|
-----------------------------------|

-----------------------------------|
-----------------------------------|
-----------------------------------|
-----------------------------------|
----6-7-6-9-6-7-6-9-6-7-6-9-7-6----|
--7-----------------------------7--|

---------------------------|
---------------------------|
---------------------------|
----4-5-4-7-4--------------|
--5-------------4-5-4-7-4--|
--------------5------------|

-----------------------------------|
-----------------------------------|
-----------------------------------|
----6-7-6-9-6-7-6-9-6-7-6-9-7-6----|
--7-----------------------------7--|
-----------------------------------|

Solo
I only know parts of the solo so if anyone knows the rest please tell me.
The first part comes 2mins 36 into the song.
-----------14----------14----------14----------14----------19-17--|
--14----------17-14-------17-14-------17-14-------17-14-----------|
--14----------------16----------16----------16----------16--------|
-----16-14--------------------------------------------------------|
------------------------------------------------------------------|
------------------------------------------------------------------|

The second part comes 2mins 54 into the song.
------------------------------------------------------------|
--19-14-17-19-14-17-19-14-17-19-14-17-19-14-17-19-14-17-14--|
------------------------------------------------------------|
------------------------------------------------------------|
------------------------------------------------------------|
------------------------------------------------------------|

Verse
-----------------|
-----------------|
--9---7----------|
--9---7---5---7--|
--7---5---5---7--|
----------3---5--|

Chorus
-----------------|
-----------------|
--9-------7------|
--9---5---7---7--|
--7---5---5---7--|
------3-------5--|

Riff A
---------------|-------------------|
---------------|-------------------|
---------------|-------------------|
--2-2-0---0----|--2-2-0---0-5-4-2--|
--------2---2--|--------2----------|
---------------|-------------------|
Comments