Iron Maiden - Heaven Can Wait Chords & Tabs

 

Heaven Can Wait Chords & Tabs

Iron Maiden Chords & Tabs

Version: 1 Type: Tab 0 ratings
1 star 2 stars 3 stars 4 stars 5 stars
comments

Heaven Can Wait Tab

#----------------------------------PLEASE NOTE---------------------------------#
#This file is the author's own work and represents their interpretation of the #
#song. You may only use this file for private study, scholarship, or research. #
#------------------------------------------------------------------------------#
#


From wigren@skelleftea.mail.telia.com Sun May  4 11:03:31 1997
Date: Tue, 18 Mar 1997 15:14:51 +0100
From: wigren@skelleftea.mail.telia.com
To: Olga Guitar Tab 
Subject: Tab IRON MAIDEN Heaven can wait




HEAVEN CAN WAIT
Written by Steve Harris.
Performed by IRON MAIDEN.
Taken from the album SOMEWHERE IN TIME.

NOTE:
This song is about a guy
who has a near-death-experience.

Transcribed by Oskar "The Seventh Son" Wigren.
E-mail me at wigren@skelleftea.mail.telia.com

Riff 1:
E---------------------------------|----------------------------------|
B---------------------------------|----------------------------------|
G--7-9-7-9---7---9---7---7-7-9-7--|--5-7-5-7---5---7---5----5-5-7-5--|
D--7-7-7-7---7---7---7---7-7-7-7--|--5-5-5-5---5---5---5----5-5-5-5--|
A---------------------------------|----------------------------------|
E---------------------------------|----------------------------------|

E---------------------------------|---------------------------------------|
B---------------------------------|---------------------------------------|
G--7-9-7-9---7---9---7---7-7-9-7--|--10-12-10-12---10---12-14-12-14---12--|
D--7-7-7-7---7---7---7---7-7-7-7--|--10-10-10-10---10---12-12-12-12---12--|
A---------------------------------|---------------------------------------|
E---------------------------------|---------------------------------------|

Riff 2:
E---------------------------------|----------------------------------|
B---------------------------------|----------------------------------|
G---------------------------------|----------------------------------|
D--7-9-7-9---7---9---7---7-7-9-7--|--5-7-5-7---5---7---5----5-5-7-5--|
A--7-7-7-7---7---7---7---7-7-7-7--|--5-5-5-5---5---5---5----5-5-5-5--|
E---------------------------------|----------------------------------|

E---------------------------------|---------------------------------------|
B---------------------------------|---------------------------------------|
G---------------------------------|---------------------------------------|
D--7-9-7-9---7---9---7---7-7-9-7--|--10-12-10-12---10---12-14-12-14---12--|
A--7-7-7-7---7---7---7---7-7-7-7--|--10-10-10-10---10---12-12-12-12---12--|
E---------------------------------|---------------------------------------|

Verse:
1.Can't understand what is happening to me____________________________________|
E--------------------------------------|--------------------------------------|
B-----------------------------7--8--7--|--------------------------------------|
G-----------------------------7--7--7--|--------------------------------------|
D-----------------------------7--7--7--|--------------------------------------|
A--5--5--5--5--5--5--5--5--5-----------|--5--5--5--5--5--5--5--5--5--5--5--5--|
E--------------------------------------|--------------------------------------|


E-------------------------------------------------|
B-------------------------------------------------|
G----------------------------------------------7--|
D--5--4---------------5--4---------------5--4--7--|
A--------7--5----7----------7--5----7----------5--|
E-------------------------------------------------|

E--------------------------------------|
B-----------------------------7--8--7--|
G-----------------------------7--7--7--|
D-----------------------------7--7--7--|
A--5--5--5--5--5--5--5--5--5-----------|
E--------------------------------------|

I'm looking down on my body below I lie asleep________________________________|
E--------------------------------------|--------------------------------------|
B-----------------------------7--8--7--|--------------------------------------|
G-----------------------------7--7--7--|--------------------------------------|
D-----------------------------7--7--7--|--------------------------------------|

A--5--5--5--5--5--5--5--5--5-----------|--5--5--5--5--5--5--5--5--5--5--5--5--|
E--------------------------------------|--------------------------------------|


E-------------------------------------------------|
B-------------------------------------------------|
G----------------------------------------------7--|
D--5--4---------------5--4---------------5--4--7--|
A--------7--5----7----------7--5----7----------5--|
E-------------------------------------------------|

E--------------------------------------|
B-----------------------------7--8--7--|
G-----------------------------7--7--7--|
D-----------------------------7--7--7--|
A--5--5--5--5--5--5--5--5--5-----------|
E--------------------------------------|

Pre-chorus:
1.I can't believe that really my time has come|
E---------------------------------------------|
B---------------------------------------------|
G--3-----------------------------------3---3--|
D--3-----------------------------------3---3--|
A--1--1--1--1--1--1--1--1--1--1--1--1--1---1--|
E---------------------------------------------|


E---------------------------------------------|
B---------------------------------------------|
G--3-----------------------------------3---3--|
D--3-----------------------------------3---3--|
A--1--1--1--1--1--1--1--1--1--1--1--1--1---1--|
E---------------------------------------------|


E-----------------------------------------------|---------------------------------|
B-----------------------------------------------|---------------------------------|
G--5-----------------------------------5--5--5--|--------------------5------------|
D--5-----------------------------------5--5--5--|--3--2--------------5------------|
A--3--3--3--3--3--3--3--3--3--3--3--3--3--3--3--|--------5--3--------3------------|
E-----------------------------------------------|---------------------------------|

Chorus:
Heaven can wait____________________________|..
E---------------------|--------------------|
B--7------------------|--7-8---7-----------|
G--7------------------|--------------7-----|
D--7------------------|--------------------|
A---------------------|--------------------|
E---------------------|--------------------|

....
E---------------------|--------------------|
B--10-----10----------|--8-----7-----------|
G---------------------|--------------------|
D---------------------|--------------10----|
A---------------------|--------------------|
E---------------------|--------------------|

....
E---------------------|--------------------|
B--10-----10----------|--10-11-------10----|
G---------------------|--------------------|
D---------------------|--------------------|
A---------------------|--------------------|
E---------------------|--------------------|

..
E----------------------|--------------------|
B--(12)----------------|--------------------|
G---------(12)---------|--------------------|
D----------------(12)--|--------------------|
A----------------------|--------------------|
E----------------------|--------------------|
[ Tab from: http://www.guitartabs.cc/tabs/i/iron_maiden/heaven_can_wait_tab.html ]
Solo-riff
E------------------------------------|-----------------------------------|
B------------------------------------|-----------------------------------|
G------------------------------------|------------------------9-7--------|
D--9----9---7---5---7---9---7---5----|----9---7---5---7---9-------9-7-7--|
A--7--7---7---7---7---7---7---7---7--|--7---7---7---7---7---7---------5--|
E------------------------------------|-----------------------------------|

E------------------------------------|-----------------------------------|
B------------------------------------|-----------------------------------|
G------------------------------------|-------------------------9-----5---|
D--9----9---7---5---7---9---7---5----|----9---7---5---7---9----9-----5---|
A--7--7---7---7---7---7---7---7---7--|--7---7---7---7---7---7--7-----3---|
E------------------------------------|-----------------------------------|

E-----------------------------------|-----------------------------------|
B-----------------------------------|-----------------------------------|
G-----------------------------------|-----------------------------------|
D--5---5---4---5---4---5---4---5-5--|--5---5---4---5---4---5---4---5-2--|
A--3-3---3---3---3---3---3---3---3--|--3-3---3---3---3---3---3---3---0--|
E-----------------------------------|-----------------------------------|

E-----------------------------------|-----------------------------------|
B-----------------------------------|-----------------------------------|
G-----------------------------------|-----------------------------------|
D--2---5---4---5---4---5---4-2------|------5---4---5---4---5---4-4------|
A--0-0---0---0---0---0---0----------|----0---0---0---0---0---0-----5-7--|
E--------------------------------0--|--0--------------------------------|

Riff 3:
   ..
E------------------------------|------------------------------|
B------------------------------|------------------------------|
G--9-------9-------9-------12--|--7-------7-------7-------12--|
D--9-------9-------9-------12--|--7-------7-------7-------12--|
A--7---7-7-7---7-7-7---7-7-10--|--5---5-5-5---5-5-5---5-5-10--|
E------------------------------|------------------------------|


E-----------------------------|--------------------------|
B-----------------------------|--------------------------|
G--9-------9-------9-------9--|--5---5-5-5----7---7-7-7--|
D--9-------9-------9-------9--|--5---5-5-5----7---7-7-7--|
A--7---7-7-7---7-7-7---7-7-7--|--3---3-3-3----5---5-5-5--|
E-----------------------------|--------------------------|

   ...
E------------------------------|------------------------------|
B------------------------------|------------------------------|
G--9-------9-------9-------12--|--7-------7-------7-------12--|
D--9-------9-------9-------12--|--7-------7-------7-------12--|
A--7---7-7-7---7-7-7---7-7-10--|--5---5-5-5---5-5-5---5-5-10--|
E------------------------------|------------------------------|

   
E-----------------------------|--------------------------|
B-----------------------------|--------------------------|
G--9-------9-------9-------9--|--5---5-5-5----7---7-7-7--|
D--9-------9-------9-------9--|--5---5-5-5----7---7-7-7--|
A--7---7-7-7---7-7-7---7-7-7--|--3---3-3-3----5---5-5-5--|
E-----------------------------|--------------------------|

..
E-----------------------------|-----------------------------|
B-----------------------------|-----------------------------|
G--2-------2-------2-------5--|--------------------------5--|
D--2-------2-------2-------5--|--5-------5-------5-------5--|
A--0---0-0-0---0-0-0---0-0-3--|--5-------5-------5-------3--|
E-----------------------------|--3---3-3-3---3-3-3---3-3----|

....
E-----------------------------|--------------------------|
B-----------------------------|--------------------------|
G--2-------2-------2-------2--|--------------------------|
D--2-------2-------2-------2--|--3---3-3-3----5---5-5-5--|
A--0---0-0-0---0-0-0---0-0-0--|--3---3-3-3----5---5-5-5--|
E-----------------------------|--1---1-1-1----3---3-3-3--|

.....
E-----------------------------|-----------------------------|
B-----------------------------|-----------------------------|
G--2-------2-------2-------5--|--------------------------5--|
D--2-------2-------2-------5--|--5-------5-------5-------5--|
A--0---0-0-0---0-0-0---0-0-3--|--5-------5-------5-------3--|
E-----------------------------|--3---3-3-3---3-3-3---3-3----|

..
E-----------------------------|--------------------------|
B-----------------------------|--------------------------|
G--2-------2-------2-------2--|--------------------------|
D--2-------2-------2-------2--|--3---3-3-3----5---5-5-5--|
A--0---0-0-0---0-0-0---0-0-0--|--3---3-3-3----5---5-5-5--|
E-----------------------------|--1---1-1-1----3---3-3-3--|


E--------------------------------|--------------------------------|
B--------------------------------|--------------------------------|
G--7-------7-------7-------7--5--|--7-------7-------7-------7--5--|
D--7-------7-------7-------7--5--|--7-------7-------7-------7--5--|
A--5---5-5-5---5-5-5---5-5-5-----|--5---5-5-5---5-5-5---5-5-5-----|
E--------------------------------|--------------------------------|

Riff 4:
   OH      OH      OH               OH  OH  OH  OH  OH       OH  OH
E--------------------------------|--------------------------------|
B--------------------------------|--------------------------------|
G--7-------7-------7-------7--5--|--7-------7-------7-------7--5--|
D--7-------7-------7-------7--5--|--7-------7-------7-------7--5--|
A--5---5-5-5---5-5-5---5-5-5-----|--5---5-5-5---5-5-5---5-5-5-----|
E--------------------------------|--------------------------------|

   OH      OH      OH               OH  OH  OH  OH  OH
E--------------------------------|----------------------|
B--------------------------------|----------------------|
G--7-------7-------7-------7--5--|--7-------7--5--5-----|
D--7-------7-------7-------7--5--|--7-------7--5--5-----|
A--5---5-5-5---5-5-5---5-5-5-----|--5---5-5-5--3--3-----|
E--------------------------------|----------------------|

Riff 5:
   OH      OH      OH            OH  OH  OH  OH  OH    OH  OH
E-----------------------------|-----------------------------|
B-----------------------------|-----------------------------|
G--7-------7-------7-------7--|--3-------3-------3-------3--|
D--7-------7-------7-------7--|--3-------3-------3-------3--|
A--5---5-5-5---5-5-5---5-5-5--|--1---1-1-1---1-1-1---1-1-1--|
E-----------------------------|-----------------------------|

   OH      OH      OH            OH  OH  OH  OH  OH
E-----------------------------|---------------------------|
B-----------------------------|---------------------------|
G--5-------5-------5-------5--|--7-------7-------7-----5--|
D--5-------5-------5-------5--|--7-------7-------7-----5--|
A--3---3-3-3---3-3-3---3-3-3--|--5---5-5-5---5-5-5--0--3--|
E-----------------------------|---------------------------|

Riff 6:
E----------------|----------------|
B----------------|----------------|
G----------------|----------------|
D--3--3-2---2----|--3--3-2---2----|
A---------5---3--|---------5---3--|
E----------------|----------------|

E----------------|----------------|
B----------------|----------------|
G----------------|----------------|
D--3--3-2---2----|--3--3-2---2----|
A---------5---3--|---------5---3--|
E----------------|----------------|

Outro:
E-----------------|---------------------------------------|
B-----------------|---------------------------------------|
G-----------------|---------------------------7-----------|
D--5-7-5-3-----3--|--2-2-2-3---2--------------7-----------|
A----------5------|----------------3-5--------5-----------|
E-----------------|---------------------------------------|

Songstructure:
Riff 1(3 times)
Riff 2(2 times)
Verse 1
Pre-chorus
Chorus(2 times)
Verse 2
Pre-chorus
Chorus(2 times)
Solo-riff(2 times)
Riff 3
Bridge
Riff 4(2 times)
Riff 5(4 times)
Solo-riff(2 times)
Riff 6(4 times)
Verse 3
Pre-chorus
Chorus(4 times)
Riff 2(2 times)
Riff 1(2 times)
Outro
END
Comments