Iron Maiden - Gates Of Tommorow Chords & Tabs

 

Gates Of Tommorow Chords & Tabs

Iron Maiden Chords & Tabs

Version: 1 Type: Chords 0 ratings
1 star 2 stars 3 stars 4 stars 5 stars
comments

Gates Of Tommorow Chords

   
                                                           
Band:Iron Maiden                                     Tabbed By RandyRhoads-1
Song:Gates Of Tommorow[intro/verse]
Album:Dance Of Death

Tuning:D A D g b e

                             This is an easy riff!
 gtr 1
e|-3-3-3-5-3-3-7-3-3-5-3-3-5-3-3-3-3\1-1-3-1-1-5-1-1-3-1-1-3-1-1-1-|
b|-3-3-3-3-3-3-3-3-3-3-3-3-3-3-3-3-3\1-1-1-1-1-1-1-1-1-1-1-1-1-1-1-| 
g|-----------------------------------------------------------------|      
D|-----------------------------------------------------------------|  x 1 
A|-----------------------------------------------------------------|     
D|-----------------------------------------------------------------|   

 gtr 1
e|-------------3-3-3---3-3-4-3-----------------5-5-5-8-5-5-6-5-----|
b|-4-4-4-6-4-4-4-4-4-4-4-4-4-4-4-6-6-6-6-8-6-6-6-6-6-6-6-6-6-6-6-4-|
g|-3-3-3-3-3-3-------3---------3-5-5-5-5-5-5-5-----------------5-3-|
D|-----------------------------------------------------------------|  x 1
A|-----------------------------------------------------------------|
D|-----------------------------------------------------------------|
[ Tab from: http://www.guitartabs.cc/tabs/i/iron_maiden/gates_of_tommorow_crd.html ]
 gtr 2
e|------------------------------------|
b|------------------------------------|
g|------------------------------------|this is the Rhythm for
D|-1--------------------------------3-|the gtr 1 part
A|-1--------------------------------3-|
D|-1--------------------------------3-|
                                     
   G5                            F5   
e|----------------------------------------------|
b|------12----13---15---13-----------10--12--13-|
g|-12----------------------14----10-------------|
D|----------------------------------------------|  x 1
A|----------------------------------------------|
D|----------------------------------------------|

   Eb5                           F5
e|----------------------------------------------|
b|-----8-----10-----11----10---8----10--11--13--|
g|-8-----------------------------10-------------|
D|----------------------------------------------|  x 1
A|----------------------------------------------|
D|----------------------------------------------|


e|-----------|
b|----13b----|
g|-----------|
D|-----------|Before it goes into the pre-chorus
A|-----------|there is a bend on the 13th fret
D|-----------|

                           Maiden Rule!
Comments