Iron Maiden - Futureal Chords & Tabs

 

Futureal Chords & Tabs

Iron Maiden Chords & Tabs

Version: 3 Type: Tab 0 ratings
1 star 2 stars 3 stars 4 stars 5 stars
comments

Futureal Tab

 Iron Maiden
 title:futureal(solo)
 album:virtual xi
 sveinungborvik@hotmail.com


h - hammer-on
p - pull-off
/ - slide
^ - half bend
^^ - full bend
~  - vibrato




----12-14----12h14p12----12-15-14-12----12h14p12------------------------------
-15-------15----------15-------------15----------15-14-12----12h14p12---------
----------------------------------------------------------15------------------
------------------------------------------------------------------------------
------------------------------------------------------------------------------
------------------------------------------------------------------------------
                                                                              

------------------------------------------12-------------------------17b19----
---------------------------------------12----12-15b17-15b17r15----------------
-15-14-12----12-14b16r14p12-14b16---------------------------------------------
----------14------------------------------------------------------------------
------------------------------------------------------------------------------
------------------------------------------------------------------------------
                                                                              

-17-----17b19-17-15-14--17-15-14-----15-14--------14--------------------------
-------------------------------------17-------17-15-----17-15-----------13-15----
-----------------------------------------------------------------17-16--------------
------------------------------------------------------------------------------
------------------------------------------------------------------------------
------------------------------------------------------------------------------
                                                                              
[ Tab from: http://www.guitartabs.cc/tabs/i/iron_maiden/futureal_tab_ver_3.html ]
-17b19-17--------14-15-15p14----14-15-15p14----14-----------------------------
-----------------------------17-------------17----17-16-15-14----14h15p14-----
--------------------------------------------------------------16----------16--
------------------------------------------------------------------------------
------------------------------------------------------------------------------
------------------------------------------------------------------------------
                                                                              

-------------------12----15b17-15-14-12-------15p12-------15p12-------15p12---
-15p14p13-------12----12----------------15b17-------15b17-------15b17---------
----------14b16---------------------------------------------------------------
------------------------------------------------------------------------------
------------------------------------------------------------------------------
------------------------------------------------------------------------------
                                                                              

-------15p12-------15p12-------15p12--------------15-14-----------------------
-15b17-------15b17-------15b17-------15b17--15b17-----------------------------
------------------------------------------------------------------------------
------------------------------------------------------------------------------
------------------------------------------------------------------------------
------------------------------------------------------------------------------
                                                                              

-12/10-12-11-10----10h11p10---------------------------------------------------
--------------------12------------12-11-10/8-10-8/7-8-7/5-7p5p0-3p1p0---------
----------------------------------------------------------------0-------------
------------------------------------------------------------------------------
------------------------------------------------------------------------------
------------------------------------------------------------------------------
                                                                              

-----------------------------------------------12-----------------------------
--------------------------------------------12----12-15b17--------------------
-11b-12-11h12p11----11-------------12-14b16-----------------------------------
-----------------14----14-12h13h14--------------------------------------------
------------------------------------------------------------------------------
------------------------------------------------------------------------------
Comments