Iron Maiden - From Here To Eternity Chords & Tabs

 

From Here To Eternity Chords & Tabs

Iron Maiden Chords & Tabs

Version: 1 Type: Bass Tab 0 ratings
1 star 2 stars 3 stars 4 stars 5 stars
comments

From Here To Eternity Bass Tab

Tabbed by Lucas

I am 14 years old and I am from Finland so in this text can be errors.
This is my first tab but itīs best what I can do...
If you find any suggestions or errors please e-mail me (luubass@hotmail.com)

Iron Maiden: From here to the eternity(Harris)
From album "Fear of the dark"

Intro 3x
-7-7-7-7-7-7-5-5-5-5-5-5-4-4-4-4-5-4-5-7-7-7-7-7-7-5---
-------------------------------------------------------
-5-5-5-5-5-5-3-3-3-3-3-3-2-2-2-2-3-2-3-5-5-5-5-5-5-3---
-------------------------------------------------------
Then comes this(still intro)
-7-7-7-7-7-7-5-5-5-5-5-5-3-3-3-3-5-3-5-7-7-7-7-7-7-5---
-------------------------------------------------------
-5-5-5-5-5-5-3-3-3-3-3-3-1-1-1-1-3-1-3-5-5-5-5-5-5-3---
-------------------------------------------------------

Verse 4x ("She fell in love...")
-9-------------7-------------5-------------7---------------
-9-------------7-------------5-------------7---------------
-7-7-7-7-7-7-7-5-5-5-5-5-5-5-3-3-3-3-3-3-3-5-5-5-5-5-5-5---
-----------------------------------------------------------

Chorus 2x ("Hell ainīt a bad place...")
-9---------------------------------------------
-9---------7-6-------5h75h75h75h7-55-----------
-7-7-7-7-7-----7-7-7-----------------5-7-7-7---
-----------------------------------------------

Then comes again verse(4x) and chorus(4x)
[ Tab from: http://www.guitartabs.cc/tabs/i/iron_maiden/from_here_to_eternity_btab.html ]
Interlude 2x
-9-9-9-9-9-9-7-7-7-7-7-7-6-6-6-6-7-6-7-9-9-9-9-9-9-7---
-------------------------------------------------------
-7-7-7-7-7-7-5-5-5-5-5-5-4-4-4-4-5-4-5-7-7-7-7-7-7-5---
-------------------------------------------------------

-9-9-9-9-9-9-7-7-7-7-7-7-5-5-5-5-7-5-7-9-9-9-9-9-9-7---
-------------------------------------------------------
-7-7-7-7-7-7-5-5-5-5-5-5-3-3-3-3-5-3-5-7-7-7-7-7-7-5---
-------------------------------------------------------

Solo1 2x
-9-----------7-----------5----7----9-------------
-9-----------7-----------5----7----9-------------
-7-7-7-7-7-7-5-5-5-5-5-5-3-33-5-55-7-7-7-7-7-7---
-------------------------------------------------

Solo2 2x
-7-----------5-----------3----5----7-------------
-7-----------5-----------3----5----7-------------
-5-5-5-5-5-5-3-3-3-3-3-3-1-11-3-33-5-5-5-5-5-5---
-------------------------------------------------

Chorus 5x
-9--------------------------------------------
-9---------7-6-------5h75h75h75h7-55----------
-7-7-7-7-7-----7-7-7----------------5-7-7-7---
----------------------------------------------

Ending
-9------------------------------------------------------
-9---------7-6~-----7-6---7-6---7---6-------------------
-7-7-7-7-7--------------7-----7---------7-77777777...---
--------------------------------------------------------
I dontīt know how ending goes exactly so you have to do it yourself
Last note:
-9-
-9-
-7-   Enjoy!
---
Comments