Iron Maiden - Flight Of Icarus Chords & Tabs

 

Flight Of Icarus Chords & Tabs

Iron Maiden Chords & Tabs

Version: 3 Type: Tab 0 ratings
1 star 2 stars 3 stars 4 stars 5 stars
comments

Flight Of Icarus Tab

   
-------------------------------------------------------------------------------
			     Flight Of Icarus - Iron Maiden
-------------------------------------------------------------------------------
Tabbed by: Robbie Cook
Email: cookandhisguitar@msn.com

Tuning: Standard


This is extremely accurate but I'm only human so I've probablies made one or two
mistakes, if there's something that doesn't sound right then ask me and I'll see
what the problem is. Listen to the song to get the timing right and the sequence.
Pretty fun song to play and sounds great, pretty easy too. Enjoy!!!

Notation Legend:
h= Hammer on
r= Release (pull off)
s= Slide (S is only used in the solos, otherwise it is either \ or /)
b= Bend
bs= Bend and slide
x= Dead Note
\= Slide Down
/= Slide Up
1: 54 = 1 Minute And 54 Seconds In To The Song (The time only appears above the solos)



                                 Introduction

e|---5-----0-----------------------------------------------------------------|
B|---5-----0-----------------------------------------------------------------|
G|---6-----1-----------------------------------------------------------------|
D|---7-----2-----4--x--x--4--x--x--4--x--x--4--4--4--4--4--x--x--------------|
A|---7-----2-----4--x--x--4--x--x--4--x--x--4--4--4--4--4--x--x--------------|
E|---5-----0-----2--x--x--2--x--x--2--x--x--2--2--2--2--2--x--x--------------|

e|---------------------------------------------------------------------------|
B|---------------------------------------------------------------------------|
G|---------------------------------------------------------------------------|
D|----4--x--x--4--x--x--4--x--x--4--4--4--4--4--x--x-------------------------|
A|----4--x--x--4--x--x--4--x--x--4--4--4--4--4--x--x-------------------------|
E|----2--x--x--2--x--x--2--x--x--2--2--2--2--2--x--x-------------------------|

e|---------------------------------------------------------------------------|
B|---------------------------------------------------------------------------|
G|---------------------------------------------------------------------------|
D|----4--x--x--4--x--x--4--x--x--4--4--4--4--4--x--x-------------------------|
A|----4--x--x--4--x--x--4--x--x--4--4--4--4--4--x--x-------------------------|
E|----2--x--x--2--x--x--2--x--x--2--2--2--2--2--x--x-------------------------|

e|------------------------------------2--------------------------------------|
B|------------------------------------2--------------------------------------|
G|------------------------------------2--------------------------------------|
D|----4--x--x--4--x--x--4--x--x-------4--------------------------------------|
A|----4--x--x--4--x--x--4--x--x-------4--------------------------------------|
E|----2--x--x--2--x--x--2--x--x-------2--------------------------------------|



                                  Verse
 
e|---5-----0-----5-----2-----------------------------------------------------|
B|---5-----0-----5-----2-----------------------------------------------------|
G|---6-----1-----6-----2-----------------------------------------------------|
D|---7-----2-----7-----4-----------------------------------------------------|
A|---7-----2-----7-----4-----------------------------------------------------|
E|---5-----0-----5-----2-----------------------------------------------------|



                         Prechorus (Different 1st Time)

e|---------------------------------------------------------------------------|
B|---------------------------------------------------------------------------|
G|---------------------------------------------------------------------------|
D|---4--4--x--4--4-----------------2--2--x--2--2--4--4-/-6--6----------------|
A|---4--4--x--4--4--7--7--x--7--7--0--0--x--0--0--2--2-/-4--4----------------|
E|---2--2--x--2--2--4--4--x--4--4--------------------------------------------|

                                    Chorus

e|------2-----------0--------------------------------------------------------|
B|------2-----------0--------------------------------------------------------|
G|------2--------1--1--1-----------------------------------------------------|
D|---4--4--4-----2--2--2-----7---------------7---------------7---------------|
A|---4--4--4-----2--2--2-----5-\-4-/-5-------5-\-4-/-5-------5-\-4-/-5-------|
E|---2--2--2-----0--0--0-----------------------------------------------------|

e|---------------------------------------------------------------------------|
B|---------------------------------------------------------------------------|
G|---------------------------------------------------------------------------|
D|---7-------9---------------------------------------------------------------|
A|---5-\-4-/-7---------------------------------------------------------------|
E|---------------------------------------------------------------------------|

e|------2-----------0--------------------------------------------------------|
B|------2-----------0--------------------------------------------------------|
G|------2--------1--1--1-----------------------------------------------------|
D|---4--4--4-----2--2--2-----7---------------7---------------7---------------|
A|---4--4--4-----2--2--2-----5-\-4-/-5-------5-\-4-/-5-------5-\-4-/-5-------|
E|---2--2--2-----0--0--0-----------------------------------------------------|

e|---------------------------------------------------------------------------|
B|---------------------------------------------------------------------------|
G|---------------------------------------------------------------------------|
D|---7-------9-----4--x--x--4--x--x--4--x--x--4--4--4--4--4--x--x------------|
A|---5-\-4-/-7-----4--x--x--4--x--x--4--x--x--4--4--4--4--4--x--x------------|
E|-----------------2--x--x--2--x--x--2--x--x--2--2--2--2--2--x--x------------|

e|---------------------------------------------------------------------------|
B|---------------------------------------------------------------------------|
G|---------------------------------------------------------------------------|
D|----4--x--x--4--x--x--4--x--x--4--4--4--4--4--x--x-------------------------|
A|----4--x--x--4--x--x--4--x--x--4--4--4--4--4--x--x-------------------------|
E|----2--x--x--2--x--x--2--x--x--2--2--2--2--2--x--x-------------------------|

e|---------------------------------------------------------------------------|
B|---------------------------------------------------------------------------|
G|---------------------------------------------------------------------------|
D|----4--x--x--4--x--x--4--x--x--4--4--4--4--4--x--x-------------------------|
A|----4--x--x--4--x--x--4--x--x--4--4--4--4--4--x--x-------------------------|
E|----2--x--x--2--x--x--2--x--x--2--2--2--2--2--x--x-------------------------|

e|--------------------------------------2-----2------------------------------|
B|--------------------------------------2--------2-----5---------------------|
G|--------------------------------------2-----------2------------------------|
D|----4--x--x--4--x--x--4--x--x---------4------------------------------------|
A|----4--x--x--4--x--x--4--x--x---------4------------------------------------|
E|----2--x--x--2--x--x--2--x--x---------2------------------------------------|



                                On To Verse Again

e|---5-----0-----5-----2-----------------------------------------------------|
B|---5-----0-----5-----2-----------------------------------------------------|
G|---6-----1-----6-----2-----------------------------------------------------|
D|---7-----2-----7-----4-----------------------------------------------------|
A|---7-----2-----7-----4-----------------------------------------------------|
E|---5-----0-----5-----2-----------------------------------------------------|

   
                    
                         Prechorus (Different From The First)

e|---------------------------------------------------------------------------|
B|---------------------------------------------------------------------------|
G|---------------------------------------------------------------------------|
D|---4--4--x--4--4-----------------2--2--x--2--2--4--4--x--4--2--------------|
A|---4--4--x--4--4--7--7--x--7--7--0--0--x--0--0--2--2--x--2--0--------------|
E|---2--2--x--2--2--4--4--x--4--4--------------------------------------------|

e|---------------------------------------------------------------------------|
B|---------------------------------------------------------------------------|
G|---------------------------------------------------------------------------|
D|---4--4--x--4--4-----------------2--2--x--2--2--4--4-/-6--6----------------|
A|---4--4--x--4--4--7--7--x--7--7--0--0--x--0--0--2--2-/-4--4----------------|
E|---2--2--x--2--2--4--4--x--4--4--------------------------------------------|


                               
                                  Chorus Again

e|------2-----------0--------------------------------------------------------|
B|------2-----------0--------------------------------------------------------|
G|------2--------1--1--1-----------------------------------------------------|
D|---4--4--4-----2--2--2-----7---------------7---------------7---------------|
A|---4--4--4-----2--2--2-----5-\-4-/-5-------5-\-4-/-5-------5-\-4-/-5-------|
E|---2--2--2-----0--0--0-----------------------------------------------------|

e|---------------------------------------------------------------------------|
B|---------------------------------------------------------------------------|
G|---------------------------------------------------------------------------|
D|---7-------9---------------------------------------------------------------|
A|---5-\-4-/-7---------------------------------------------------------------|
E|---------------------------------------------------------------------------|
[ Tab from: http://www.guitartabs.cc/tabs/i/iron_maiden/flight_of_icarus_tab_ver_3.html ]
e|------2-----------0--------------------------------------------------------|
B|------2-----------0--------------------------------------------------------|
G|------2--------1--1--1-----------------------------------------------------|
D|---4--4--4-----2--2--2-----7---------------7---------------7---------------|
A|---4--4--4-----2--2--2-----5-\-4-/-5-------5-\-4-/-5-------5-\-4-/-5-------|
E|---2--2--2-----0--0--0-----------------------------------------------------|

e|---------------------------------------------------------------------------|
B|---------------------------------------------------------------------------|
G|---------------------------------------------------------------------------|
D|---7-------9-----4--x--x--4--x--x--4--x--x--4--4--4--4--4--x--x------------|
A|---5-\-4-/-7-----4--x--x--4--x--x--4--x--x--4--4--4--4--4--x--x------------|
E|-----------------2--x--x--2--x--x--2--x--x--2--2--2--2--2--x--x------------|

e|---------------------------------------------------------------------------|
B|---------------------------------------------------------------------------|
G|---------------------------------------------------------------------------|
D|----4--x--x--4--x--x--4--x--x--4--4--4--4--4--x--x-------------------------|
A|----4--x--x--4--x--x--4--x--x--4--4--4--4--4--x--x-------------------------|
E|----2--x--x--2--x--x--2--x--x--2--2--2--2--2--x--x-------------------------|

e|---------------------------------------------------------------------------|
B|---------------------------------------------------------------------------|
G|---------------------------------------------------------------------------|
D|----4--x--x--4--x--x--4--x--x--4--4--4--4--4--x--x-------------------------|
A|----4--x--x--4--x--x--4--x--x--4--4--4--4--4--x--x-------------------------|
E|----2--x--x--2--x--x--2--x--x--2--2--2--2--2--x--x-------------------------|

e|--------------------------------------2------------------------------------|
B|--------------------------------------2------------------------------------|
G|--------------------------------------2------------------------------------|
D|----4--x--x--4--x--x--4--x--x---------4------------------------------------|
A|----4--x--x--4--x--x--4--x--x---------4------------------------------------|
E|----2--x--x--2--x--x--2--x--x---------2------------------------------------|

                    

                                      Solo 1 
              (The Pre-Chorus and Chorus is just played underneath this)


  1:54                         1:58
e|-----------------------------------------------------------------------------------------|
h|------------------------------------------------------14h15r14h15-17---------------------|
g|--4b---4-2------------------------------14r13-13h14h16-----------------------------------|
D|-----------4-3-2------------------14-16--------------------------------------------------|
A|-----------------4-2---------------------------------------------------------------------|
E|---------------------5-2-2---------------------------------------------------------------|


                                            2:01
e|-14h17r14--14h17r14--14h17r14--14h17r14---14b--14-16-17-19-21-19--21-19------------------|
h|-----------------------------------------------------------------------------------------|
g|-----------------------------------------------------------------------------------------|
D|-----------------------------------------------------------------------------------------|
A|-----------------------------------------------------------------------------------------|
E|-----------------------------------------------------------------------------------------|


   2:07                                    2:08
e|-17h19r17--17h19r17--17h19r17--17h19r17--16h17r16--16h17r16--16h17r16--16h17r16----------|
h|-----------------------------------------------------------------------------------------|
g|-----------------------------------------------------------------------------------------|
D|-----------------------------------------------------------------------------------------|
A|-----------------------------------------------------------------------------------------|
E|-----------------------------------------------------------------------------------------|



                                           2:09
e|-14h17r14--14h17r14--14h17r14--14h17r14--------------------------------------------------|
h|-----------------------------------------14h17r14--14h17r14--14h17r14--14h17r14----------|
g|-----------------------------------------------------------------------------------------|
D|-----------------------------------------------------------------------------------------|
A|-----------------------------------------------------------------------------------------|
E|-----------------------------------------------------------------------------------------|



                                         2:10
e|-----------------------------------------------------------------------------------------|
h|---------------------------------------14-----------------------------14---14h16b-14-----|
g|14h16r14--14h16r14--14h16r14--14h16r14----16-14-----------------------14---14h16b-14-----|
D|------------------------------------------------16--16-14--------14-16---16-----------16-|
A|---------------------------------------------------------16-14-16------------------------|
E|-----------------------------------------------------------------------------------------|



  2:12
e|-19-17----14--19-17--17-17r14h17r14h17---------------------------------------------------|
h|-------14-----------------------------14h17r14h17----------------------------------------|
g|--------------------------------------------------14h16r14h16---14h16r14h16--------------|
D|-------------------------------------------------------------16------------14h16r14h16---|
A|---------------------------------------------------------------------------------------14|
E|-----------------------------------------------------------------------------------------|

   2:20                  2:24                      2:26
e|-----------------------14-17-14------------------14h17r14--14----------------------------|
h|-------14---14---14------------17-14---------------------17--17-14-----------------------|
g|s11-11---11---11---11---------------17-16-14----------------------16-14------------------|
D|---------------------------------------------16------------------------16-14-------------|
A|----------------------------------------------------------------------------16-15-14-----|
E|------------------------------------------------------------------------------------17-14|





                       Chorus Repeats A Few Times More I Think

e|------2-----------0--------------------------------------------------------|
B|------2-----------0--------------------------------------------------------|
G|------2--------1--1--1-----------------------------------------------------|
D|---4--4--4-----2--2--2-----7---------------7---------------7---------------|
A|---4--4--4-----2--2--2-----5-\-4-/-5-------5-\-4-/-5-------5-\-4-/-5-------|
E|---2--2--2-----0--0--0-----------------------------------------------------|

e|---------------------------------------------------------------------------|
B|---------------------------------------------------------------------------|
G|---------------------------------------------------------------------------|
D|---7-------9---------------------------------------------------------------|
A|---5-\-4-/-7---------------------------------------------------------------|
E|---------------------------------------------------------------------------|

e|------2-----------0--------------------------------------------------------|
B|------2-----------0--------------------------------------------------------|
G|------2--------1--1--1-----------------------------------------------------|
D|---4--4--4-----2--2--2-----7---------------7---------------7---------------|
A|---4--4--4-----2--2--2-----5-\-4-/-5-------5-\-4-/-5-------5-\-4-/-5-------|
E|---2--2--2-----0--0--0-----------------------------------------------------|

e|---------------------------------------------------------------------------|
B|---------------------------------------------------------------------------|
G|---------------------------------------------------------------------------|
D|---7-------9---------------------------------------------------------------|
A|---5-\-4-/-7---------------------------------------------------------------|
E|---------------------------------------------------------------------------|
                                  
                                    

                                      Solo 2 (Outro)


   3:02                                       3:10           
e|----------------------------------------------9--9---(-9-7------9--9--)x(3 times)--------|
h|-(-7--7---10-9-7---7--7)x(3 times)---10-9-7----------(-----10-7-------)------------------|
g|-(---------------9-----)--------------------9--------------------------------------------|
D|-----------------------------------------------------------------------------------------|
A|-----------------------------------------------------------------------------------------|
E|-----------------------------------------------------------------------------------------|

   3:19              3:24                                     3:27                     3:33
e|--9-9-9-9-9-9-9-9-7h9r7h9-----------------------------------9h12r9h12r9h12r9h12r9h12-9-14|
h|--------------------------7h10r7h10-----------------------7------------------------------|
g|------------------------------------7h9r7h9-------7h9r7h9--------------------------------|
D|-------------------------------------------7h9r7h9---------------------------------------|
A|-----------------------------------------------------------------------------------------|
E|-----------------------------------------------------------------------------------------|



                                    Ending

e|---5-----0-----------------------------------------------------------------|
B|---5-----0-----------------------------------------------------------------|
G|---6-----1-----------------------------------------------------------------|
D|---7-----2-----4-----------------------------------------------------------|
A|---7-----2-----4-----------------------------------------------------------|
E|---5-----0-----2-----------------------------------------------------------|
Comments