Iron Maiden - Fear Of The Dark Chords & Tabs

 

Fear Of The Dark Chords & Tabs

Iron Maiden Chords & Tabs

Version: 5 Type: Tab 0 ratings
1 star 2 stars 3 stars 4 stars 5 stars
comments

Fear Of The Dark Tab

Iron Maiden
Fear of the dark
Tab submitted by Daniel Hernandez
Any comments: yoodioacharliezaa at hotmail.com (sorry, my keyboard in word doesn't have the A with the circle surrounding it)


Standard tuning EADGBE

Intro (w. distortion)

E--------------------------------------------------------------------
B---------------------------------------------------5-5---------5----
G-7-7-----7-7-9-9-10-10-9-9-7-7-9-9-5-5-----5-5-7-7-----7-7-5-5---5--
D-----7-7-------------------------------5-5--------------------------
A--------------------------------------------------------------------
E--------------------------------------------------------------------
<-----------------------------------2 TIMES ----------------------------------->
[ Tab from: http://www.guitartabs.cc/tabs/i/iron_maiden/fear_of_the_dark_tab_ver_5.html ]
E---------------------------------------------------------------------
B---------------------------------------------------------------------
G---------------------------------------------------4-4---------4-----
D-7-7-----7-7-9-9-10-10-9-9-7-7-9-9-5-5-----5-5-7-7-----7-7-5-5---5---
A-----7-7-------------------------------5-5---------------------------
E---------------------------------------------------------------------

E-----------------------------------/-----------------------------
B-----------------------------------/-----------------------------
G-----------------------------------/------------2-2---------2----
D-7-7-----7-7-9-9-10-10-9-9-7-7-3-3-/----3-3-5-5-----5-5-3-3---3--
A-----7-7---------------------------/3-3--------------------------
E-----------------------------------/-----------------------------
                          From the (/) dive slowly



 That's all I have now.


                                                            


Comments