Iron Maiden - Fear Of The Dark Chords & Tabs

 

Fear Of The Dark Chords & Tabs

Iron Maiden Chords & Tabs

Version: 3 Type: Tab 0 ratings
1 star 2 stars 3 stars 4 stars 5 stars
comments

Fear Of The Dark Tab

   
#----------------------------------PLEASE NOTE---------------------------------#
#This file is the author's own work and represents their interpretation of the #
#song. You may only use this file for private study, scholarship, or research. #
#------------------------------------------------------------------------------##

Iron Maiden\par
Fear of the dark (Live)
h - hammer-on\par
^ - pull-off\par
/ \\ - slide\par
b - bend\par
~  - vibrato\par

Tabber: e-oekla@online.no




Intro (Guitar1)\par

E|---------------------------------|------------------------------------|
B|---------------------------------|---------------5-5---------5--------|
G|-7-----7-7-9-9-10-10-9-9-7-7-9-9-|-5-----5-5-7-7-----7-7-5-5---5------|
D|---7-7---------------------------|---5-5------------------------------|
A|---------------------------------|------------------------------------|
E|---------------------------------|------------------------------------|
(twice)

E|-----------------------------------|----------------------------------|
B|-----------------------------------|----------------------------------|
G|-----------------------------------|-----------------4-4---------4----|
D|-7-7-----7-7-9-9-10-10-9-9-7-7-9-9-|-5-5-----5-5-7-7-----7-7-5-5---5--|
A|-----7-7---------------------------|-----5-5--------------------------|
E|-----------------------------------|----------------------------------|

E|-----------------------------------|----------------------------------|
B|-----------------------------------|----------------------------------|
G|-----------------------------------|-----------------2-2---------2----|
D|-7-7-----7-7-9-9-10-10-9-9-7-7-9-9-|-3-3-----3-3-5-5-----5-5-3-3---3--|
A|-----7-7---------------------------|-----3-3--------------------------|
E|-----------------------------------|----------------------------------|
                                                      
                                                  
                                                     
Intro (Guitar2)

E----------------------------------|-------------------------------------|
B----------------------------------|-------------------------------------|
G----------------------------------|-------------------------------------|
D----------------------------------|----------------2-2---------2--------|
A-5-----5-5-7-7-8-8-7-7-5-5-7-7----|-3------3-3-5-5-----5-5-3-3---3------|
E---5-5----------------------------|---3-3-------------------------------|


E-------------------------------|----------------------------------|
B-------------------------------|----------------------------------|
G-------------------------------|----------------------------------|
D-------------------------------|-5-5-----5-5-7-7-9-9-7-7-5-5-9-5--|
A-0-0-----0-0-2-2-3-3-2-2-0-0-2-|-----5-5--------------------------|
E-----0-0-----------------------|----------------------------------|

E-------------------------------|----------------------------------|                                   \par
B-------------------------------|----------------------------------|
G-------------------------------|-----------------2-2---------2----|                                \par
D-------------------------------|-3-3-----3-3-5-5-----5-5-3-3---3--|
A-0-0-----0-0-2-2-3-3-2-2-0-0-2-|-----3-3--------------------------|                                 \par
E-----0-0-----------------------|----------------------------------|
                                                    


Lead guitar w/rythm 1(part1)                        

E|-------------------------------------------------------------|----|
B|----------8----------------------------------------8---------|--------|
G|---7-9-10---10-9---------------------10-7---7-9-10---10-9----|--------|
D|-7---------------10----10----8-10-10------7---------------10-|--------|
A|--------------------10----10---------------------------------|--------|   
E|-------------------------------------------------------------|--------|
(twice)                                                         end 2nd time 
  

 rythm 1 (part1)     
E|-----------------------|-----------------------|-----------------------|
B|-----------------------|-----------------------|-----------------------|
G|-----------------------|-----------------------|-----------------------|
D|-----7----7----7----7--|-----3----3----3----3--|-----5----5----5----5--|
A|--5----5----5----5-----|--1----1----1----1-----|--3----3----3----3-----|
E|-----------------------|-----------------------|-----------------------|

E|-----------------------|-----------------------|-----------------------|
B|-----------------------|-----------------------|-----------------------|
G|-----------------------|-----------------------|-----------------------|
D|-----3----3----5----5--|-----7----7----7----7--|-----3----3----3----3--|
A|--1----1----3----3-----|--5----5----5----5-----|--1----1----1----1-----|
E|-----------------------|-----------------------|-----------------------|

E|-----------------------|-----------------------|-----------------------|
B|-----------------------|-----------------------|-----------------------|
G|-----------------------|-----------------------|-----------------------|
D|-----5----5----5----5--|-----3----3----5----5--|-----7----7----7----7--|
A|--3----3----3----3-----|--1----1----3----3-----|--5----5----5----5-----|
E|-----------------------|-----------------------|-----------------------|
\
E|-----------------------|-----------------------|-----------------------|
B|-----------------------|-----------------------|-----------------------|
G|-----------------------|-----------------------|-----5----5----7----7--|
D|-----3----3----3----3--|-----5----5----5----5--|--3----3----5----5-----|
A|--1----1----1----1-----|--3----3----3----3-----|-----------------------|
E|-----------------------|-----------------------|-----------------------|
                                  
E|-----------------------|-----------------------|-----------------------|
B|-----------------------|-----------------------|-----------------------|
G|-----------------------|-----------------------|-----------------------|
D|-----7----7----7----7--|-----3----3----3----3--|-----5----5----5----5--|
A|--5----5----5----5-----|--1----1----1----1-----|--3----3----3----3-----|
E|-----------------------|-----------------------|-----------------------|


E|-----------------------|-----------------------|-----------------------|
B|-----------------------|-----------------------|-----------------------|
G|-----------------------|-----------------------|-----------------------|
D|-----5----5----5----5--|-----3----3----3----3--|-----5----5----5----5--|
A|--3----3----3----3-----|--1----1----1----1-----|--3----3----3----3-----|
E|-----------------------|-----------------------|-----------------------|

E|-----------------------|-----------------------|-----------------------|
B|-----------------------|-----------------------|-----------------------|
G|-----------------------|-----------------------|-----------------------|
D|-----7----7----7----7--|-----5----5----5----5--|-----3----3----3----3--|
A|--5----5----5----5-----|--3----3----3----3-----|--1----1----1----1-----|
E|-----------------------|-----------------------|-----------------------|
                                          
E|-----------------------|-----------------------|-----------------------|
B|-----------------------|-----------------------|-----------------------|
G|-----5----5----7----7--|-----------------------|-----------------------|
D|--3----3----5----5-----|-----7----7----7----7--|-----7----7----7----7--|
A|-----------------------|--5----5----5----5-----|--5----5----5----5-----|
E|-----------------------|-----------------------|-----------------------|
    
E|-----------------------|-----------------------|-----------------------|
B|-----------------------|-----------------------|-----------------------|
G|-----------------------|-----------------------|-----------------------|
D|-----3----3----3----3--|-----5----5----5----5--|-----7----7----7----7--|
A|--1----1----1----1-----|--3----3----3----3-----|--5----5----5----5-----|
E|-----------------------|-----------------------|-----------------------|

E|-----------------------|-----------------------|-----------------------|
B|-----------------------|-----------------------|-----------------------|
G|-----------------------|-----------------------|-----5----5----7----7--|
D|-----5----5----5----5--|-----3----3----3----3--|--3----3----5----5-----|
A|--3----3----3----3-----|--1----1----1----1-----|-----------------------|
E|-----------------------|-----------------------|-----------------------|
  ...
E|-----------------------|-----------------------|
B|-----------------------|-----------------------|
G|-----------------------|-----------------------|
D|-----7----7----7----7--|-----7----7----7----7--|
A|--5----5----5----5-----|--5----5----5----5-----|
E|-----------------------|-----------------------|


 THEN: Riff 1 (Do this twice, both guitars)

E|----------------|-------------------------------------|
B|----------------|-------------------------------------|
G|----------------|-------------------------------------|
D|-----7-7-5-5-7-7|-----------------5-5-----------------|
A|-5-5------------|-----5-5-7-7-8-8-----8-8-7-----------|
E|----------------|-5-5---------------------------------|
 



                                                        
E|---------------------------------|
B|---------------------------------|
G|---------------------------------|
D|-3-x-x-3-x-x-5-x-x-5-x-x-7-x-x-7-|
A|-1-x-x-1-x-x-3-x-x-3-x-x-5-x-x-5-|
E|---------------------------------|
                                    Fill 1
E|----------------------------|---------------|
B|----------------------------|---------------|
G|----------------------------|---------------|
D|x-x-5-x-x-5-x-x-3-x-x-3-----|-7-x-x-7-x-x-7-|
A|x-x-3-x-x-3-x-x-1-x-x-1-3-5-|-5-x-x-5-x-x-5-|
E|------------------------1-3-|---------------|
     

 two times                  (1st.time end 1)     (2nd. time end 2)
E|--------------------------|-------------------|-------------------|
B|-----5--6--5--6^5---------|-------------------|-------------------|
G|--7----------------7--7^5-|-------------------|------------5--7---|
D|--------------------------|-8--8^7--5--7^8^7--|-8--8^7--5---------|
A|--------------------------|-------------------|-------------------|
E|--------------------------|-------------------|-------------------|
[ Tab from: http://www.guitartabs.cc/tabs/i/iron_maiden/fear_of_the_dark_tab_ver_3.html ]
E|----------------------------------------------------------------|
B|-------------5--6--8^6--5-------5--6--8--6--5-------------------|
G|----7-----7--------------------7----------------7--5------------|
D|-7-----7--------------------7--------------------------7--8--7--|
A|----------------------------------------------------------------|
E|----------------------------------------------------------------|

E|------------------------------------------------------------5b6^5-bend up and down|
B|--------------5--6--8--6--5-------5--6--8--6--5-----------------------------------|
G|-----7-----7---------------------7----------------7^5-----------------------------|
D|--7-----7---------------------7-------------------------7-------------------------|
A|----------------------------------------------------------------------------------|
E|----------------------------------------------------------------------------------|

rythm for solos\par

solo1                               solo2

E|---------------------------------|-----------------------------------|
B|---------------------------------|-----------------------------------|
G|---------------------------------|-----------------------------------|
D|--7-----7-----3-----5-----7------|--11----11----7-----9----11--------|
A|--5-----5-----1-----3-----5------|--9-----9-----5-----7-----9--------|
E|---------------------------------|-----------------------------------|

solo 1 (this solo is from the studio album)\par
E|-----------------------------------------------------10--10-|
B|-13--------------------------------------------------10--10-|
G|-12b14--12b14-12^10----10/0--------------10--12b14----------|
D|--------------------12----------------10--------------------|
A|--------------------------------10/12-----------------------|
E|------------------------------------------------------------|

E|-13b15--13^12--10----10--------------------------------------------------------|   
B|----------------------10----13--11^10----10------------------------------------|  
G|--------------------------------------------12----12^10-----10--12--10/2-------|  
D|----------------------------------------------------------12-------------------|  
A|-------------------------------------------------------------------------------|  
E|-------------------------------------------------------------------------------|

E|--15b17--15--13/12--13------------------------------------------------|
B|------------------------13----------10--------------------------------|
G|----------------------------12/10-------12b14--12b14^12^10----10------|
D|------------------------------------------------------------------12--|
A|----------------------------------------------------------------------|
E|----------------------------------------------------------------------|

E|--13-------------------------------------------------------------------|
B|--13-------------------------------------------------------------------|
G|--14--12b14-12-10----10------------------------------------------------|
D|-----------------------12----1210-----10-------------------------------|
A|-----------------------------------12----12--11-10-8--10-8-------------|
E|------------------------------------------------------------10--10/0---|

solo 2 (this solo is from the studio album)\par
E|-----17b19--17--16--17--16-14h16-14----15-14-------------------------------------------------|\par
B|-14---------------------------------17---------17-14/12----14h17-14-----14h17-14----14h15-14-|\par
G|--------------------------------------------------------16----------16-----------16----------|\par
D|---------------------------------------------------------------------------------------------|\par
A|---------------------------------------------------------------------------------------------|\par
E|---------------------------------------------------------------------------------------------|\par

E|----------------------------------------------|-------------15/17-14-------------------------|\par
B|-----14h15-14----------------14h15--14--17b19-|-15/17-14-------------17-14--15-14----14h17-14|\par
G|-16-----------16-14-13h14h16------------------|-----------------------------------16---------|\par
D|----------------------------------------------|----------------------------------------------|\par
A|----------------------------------------------|----------------------------------------------|\par
E|----------------------------------------------|----------------------------------------------|\par

E|------------------------------------------------------------------------|19--19b21-20-17/16--|\par
B|-----14-----------------------------------------------------------------|------------------17|\par
G|-16----16-14-16-14--14-------------------------------14--16b18-16--14/6-|--------------------|\par
D|-----------------------16---16-14-16-14--------14-16--------------------|--------------------|\par
A|----------------------------------------16--16--------------------------|--------------------|\par
E|------------------------------------------------------------------------|--------------------|\par

E|-------------------14h17-16-14----14h16-14---------------------------------------------------|\par
B|----------14h15h17-------------17----------17-15-14--14h15-14--14h15-14----------------------|\par
G|-16/14h16---------------------------------------------------------------16/18-18h19-18h19-18-|\par
D|---------------------------------------------------------------------------------------------|\par
A|---------------------------------------------------------------------------------------------|\par
E|---------------------------------------------------------------------------------------------|\par

E|---------------------------------------------------------------------------------------------|\par
B|----------------------------------------------------------14-19-19-14h19^14---------14-19/14-|\par
G|-19-18h19-18-16-18-16h18-16/14--16--14h16-14/13--14----14-------------------14----14---------|\par
D|---------------------------------------------------16--------------------------14------------|\par
A|---------------------------------------------------------------------------------------------|\par
E|---------------------------------------------------------------------------------------------|\par
\par
Then: (Both guitars)\par
(play this 3 times, vocals enter 2nd and 3rd time)
\par
E|---------------------------------------------------------------------------\par
B|-------10-6-8~-------10-6-8-6----------------------------------------------\par
G|-7-7-7---------7-7-7----------------10-7-9~-------10-7-9-5--------7-3-5----\par
D|------------------------------8-8-8---------8-8-8-----------5-5-5----------\par
A|---------------------------------------------------------------------------\par
E|---------------------------------------------------------------------------\par
\par
E|---------------------------------------------------------------------------\par
B|---------------------------------------------------------------------------\par
G|-------10-7-9-------7----7-5---5-7---7-5---5-------------------------------\par
D|-7-7-7--------10-7--7--7-----7-----7-----7---------------------------------\par
A|---------------------------------------------------------------------------\par
E|---------------------------------------------------------------------------\par


lead guitar w/ rythm 2

E|---------------------------------------------------------------|
B|----------8----------------------------------------8---------------|
G|---7-9-10---10-9---------------------10-7---7-9-10---10-9----------|
D|-7---------------10----10----8-10-10------7---------------10-------|
A|--------------------10----10---------------------------------------|   
E|-------------------------------------------------------------------|
 
 rythm 2
E|-----------------------|-----------------------|-----------------------|\par
B|-----------------------|-----------------------|-----------------------|\par
G|-----------------------|-----------------------|-----------------------|\par
D|-----7----7----7----7--|-----3----3----3----3--|-----5----5----5----5--|\par
A|--5----5----5----5-----|--1----1----1----1-----|--3----3----3----3-----|\par
E|-----------------------|-----------------------|-----------------------|\par
\par
E|-----------------------|-----------------------|-----------------------|\par
B|-----------------------|-----------------------|-----------------------|\par
G|-----------------------|-----------------------|-----------------------|\par
D|-----3----3----5----5--|-----7----7----7----7--|-----3----3----3----3--|\par
A|--1----1----3----3-----|--5----5----5----5-----|--1----1----1----1-----|\par
E|-----------------------|-----------------------|-----------------------|\par
                                                   
E|-----------------------|-----------------------|-----------------------|\par
B|-----------------------|-----------------------|-----------------------|\par
G|-----------------------|-----------------------|-----------------------|\par
D|-----5----5----5----5--|-----5----5----5----5--|-----7----7----7----7--|\par
A|--3----3----3----3-----|--3----3----3----3-----|--5----5----5----5-----|\par
E|-----------------------|-----------------------|-----------------------|\par
                                                          (slow down)
E|-----------------------|-----------------------|-----------------------|\par
B|-----------------------|-----------------------|-----------------------|\par
G|-----------------------|-----------------------|-----5----5----7----7--|\par
D|-----3----3----3----3--|-----5----5----5----5--|--3----3----5----5-----|\par
A|--1----1----1----1-----|--3----3----3----3-----|-----------------------|\par
E|-----------------------|-----------------------|-----------------------|\par
  
E|-----------------------|-----------------------|
B|-----------------------|-----------------------|
G|-----------------------|-----------------------|
D|-----7----7----7----7--|-----7----7----7----7--|
A|--5----5----5----5-----|--5----5----5----5-----|
E|-----------------------|-----------------------|
 
  D5     C5   Bb5    F5    G5\par
E|-----|-----|-----|-----|-----|
B|-----|-----|-----|-----|-----|
G|--7--|--5--|--3--|-----|-----|
D|--7--|--5--|--3--|-----|--5--|
A|--5--|--3--|--1--|--3--|--5--|
E|-----|-----|-----|--1--|--3--|

If you have any corrections please mail me:   e-oekla@online.no

}
Comments