Iron Maiden - Dream Of Mirrors Chords & Tabs

 

Dream Of Mirrors Chords & Tabs

Iron Maiden Chords & Tabs

Version: 1 Type: Bass Tab 0 ratings
1 star 2 stars 3 stars 4 stars 5 stars
comments

Dream Of Mirrors Bass Tab

                                    DREAM OF MIRRORS
                                      IRON MAIDEN
                           FROM THE ALBUM " BRAVE NEW WORLD "
                                       BASS TAB
                     TRANSCRIBED BY DARGOR ( dargor_k@hotmail.com )


                -------------------------------------------------
                |  :    REPEAT          |  h    HAMMER ON       |
                |  /    SLIDE UP        |  p    PULL OFF        |
                |  \    SLIDE DOWN      | ( )   HARMINICS       |
                |  >    ACCENT          |  ~    STRING BEND     |
                |  .    STACATTO        |  +    LET RING        |
                -------------------------------------------------



---------------------------------7-------------------------------------------------------
------9-10-9-5----------9-10-9-5----------9-10-9-5-----3-------7/-----------9-10-9-5-----
-0-0-----------5---0-0---------------0-0-----------5------------------0-0------------5---
-----------------------------------------------------------------------------------------

                                           .  .
--------------7----------------------------5--4------------------------------------------
-----9-10-9-5---------9-10-9-5----3-2-3-2------------------------------------------------
0-0--------------0-0-----------5------------------0--0-0-0--0-0-0--0-0-0--0-0-0--0-0-0--0
-----------------------------------------------------------------------------------------

-----------------------------------------------------------------------------------------
-----------------------------------------------------------------------------------------
-0-0--0-0-0--0-0-0--0-0-0--0-0-0--0-0-0--0-0-0--0-0-0--0-0-0--0-0-0--.-.-----------------
---------------------------------------------------------------------5-3--3-3-3--3-3-3--3

-----------------------------------------------------------------------------------------
-----------------------------------------------------------------------------------------
----------------------------------.-.--0-0-0--0-0-0--0-0-0--0-0-0--0-0-0--0-0-0--0-0-0---
-3-3--3-3-3--3-3-3--3-3-3--3-3-3--3-5----------------------------------------------------

-----------|-----------------------------------------------------------|------10----10---
-----------|.---------------------------------------------------------.|---10----10----10
0-0-0--0-0-|.-0--0-0-0--0-0-0--0-0-0--0-0-0--0-0-0--0-0-0--0-0-0--0-0-.|-8---------------
-----------|-----------------------------------------------------------|-----------------
                                                 play 8 times

-10--------7---7---7--------10----10----10--------7---7---7--------10----10----10--------
----10---7---7---7---7---10----10----10----10---7---7---7---7---10----10----10----10---7-
-------5---------------8----------------------5---------------8----------------------5---
-----------------------------------------------------------------------------------------

7---7---7--------10----10----10----------12----12----12---------2---2---2----------------
--7---7---7---10----10----10----10----12----12----12----12----2---2---2---2-----3------5-
------------8----------------------10-----------------------0-----------------3---.--5---
----------------------------------------------------------------------------1-----3------
                                                             "the dream is true..."

-----2---2---2-----------------------2---2---2-----------------------2---2---2-----------
---2---2---2---2-----3-------5-----2---2---2---2-----3--------5----2---2---2---2-----3---
-0-----------------3---.---5-----0-----------------3----.---5----0-----------------3---.-
-----------------1-----3-------------------------1------3------------------------1-----3-

-----------------------------------------------------------------------------------------
---5-------------------------------------------------------------------------------------
-5----0--0-0-0--0-0-0--0-0-0--0-0-0--0-0-0--0-0-0--0-0-0--0-0-0--0-0-0--0-0-0--0-0-0--0-0
-----------------------------------------------------------------------------------------

-----------------------------|-----------------------------------------------------------|
-----------------------------|.---------------------------------------------------------.|
-0--0-0-0--0-0-0--0-0-0--0-0-|.-0--0-0-0--0-0-0--0-0-0--0-0-0--0-0-0--0-0-0--0-0-0--0-0-.|
-----------------------------|-----------------------------------------------------------|
                                                                         play 8 times

-----------------------------------------------------------------------------------------
-----------------------------------------------------------------------------------------
-------------------5-5-5-5-5-5-5-5-----------------5-5-5-5-5-5-5-5-----------------5-5-5-
-1-1-1-1-1-1-1-1-1-----------------1-1-1-1-1-1-1-1-----------------1-1-1-1-1-1-1-1-------
 heavier

------------------------------------------|----------------------------------------------
------------------------------------------|.---------------------------------------------
5-5-5-5-5---------------------------------|.-0-0-0-0-0-0-0-0-----------------0-0-0-0-0-0-
----------1-1-1-1-1-1-1-1-3-3-3-3-3-3-3-3-|-----------------1-1-1-3--3-3-3---------------
                                           "I only dream in black and white..."

---------------------------------------------------------------------------------------|-
--------------------------------------------------------------------------------------.|-
-0-0-----------------0-0-0-0-0-0-0-0--------------------------------------------------.|-
-----1-1-1-3--3-3-3------------------1-1-1-3--3-3-3--1-1-1-1-1-1-1-1-3-3-3-3-3-3-3-3---|-
[ Tab from: http://www.guitartabs.cc/tabs/i/iron_maiden/dream_of_mirrors_btab.html ]
----2---2---2---------------------2---2---2---------------------2---2---2----------------
--2---2---2---2-----3------5----2---2---2---2-----3------5----2---2---2---2-----3------5-
0-----------------3---.--5----0-----------------3---.--5----0-----------------3---.--5---
----------------1-----3-----------------------1-----3-----------------------1-----3------
 softer

-----2---2---2---------------------------------------------------------------------------
---2---2---2---2-----3------5------------------------------------------------------------
-0-----------------3---.--5----0--0-0-0--0-0-0--0-0-0--0-0-0--0-0-0--0-0-0--0-0-0--0-0-0-
-----------------1-----3-----------------------------------------------------------------

------------------------------------------------------|----------------------------------
------------------------------------------------------|.---------------------------------
-0-0-0--0-0-0--0-0-0--0-0-0--0-0-0--0-0-0--0-0-0--0-0-|.-0--0-0-0--0-0-0--0-0-0--0-0-0--0
------------------------------------------------------|----------------------------------

--------------------------------|--------------------------------------------------------
-------------------------------.|--------------------------------------------------------
-0-0--0-0-0--0-0-0--0-0-0--0-0-.|-----------------5-5-5-5-5-5-5-5-----------------5-5-5-5
--------------------------------|-1-1-1-1-1-1-1-1-----------------1-1-1-1-1-1-1-1--------
                play 8 times

-------------------------------------------------------------------------|---------------
-------------------------------------------------------------------------|.--------------
-5-5-5-5-----------------5-5-5-5-5-5-5-5---------------------------------|.-0-0-0-0-0-0-0
---------1-1-1-1-1-1-1-1-----------------1-1-1-1-1-1-1-1-3-3-3-3-3-3-3-3-|---------------

-----------------------------------------------------------------------------------------
-----------------------------------------------------------------------------------------
-0----------------0-0-0-0-0-0-0-0----------------0-0-0-0-0-0-0-0-------------------------
---1-1-1-3--3-3-3-----------------1-1-1-3--3-3-3-----------------1-1-1-3--3-3-3--1-1-1-1-

-------------------------|---------------------------------------------------------------
------------------------.|.--------------------------------------------------------------
------------------------.|.-0-0-0-0-0-0-0-0-0-0-0-0-0-0-0-0------------------------------
1-1-1-1-3-3-3-3-3-3-3-3--|----------------------------------3-3-3-3-3-3-3-3-3-3-3-3-3-3-3
                            faster

--------------------------------------------------------------------|--------------------
-------------------------------------------------------------------.|--------------------
---0-0-0-0-0-0-0-0-0-0-0-0-0-0-0-0---------------------------------.|-0-0-0-0-0-0-0-0-0-0
-3---------------------------------1-1-1-1-1-1-1-1-3-3-3-3-3-3-3-3--|--------------------

---------------------------------------------|-------------------------------------------
---------------------------------------------|.------------------------------------------
-0-0-0-0-0-0---------------------------------|.-0-0-0-0-0-0-0-0-0-0-0-0-0-0-0-0----------
-------------3-3-3-3-3-3-3-3-3-3-3-3-3-3-3-3-|----------------------------------3-3-3-3-3

----------------------------------------------------------------------------------------|
---------------------------------------------------------------------------------------.|
-----------------------0-0-0-0-0-0-0-0-0-0-0-0-0-0-0-0---------------------------------.|
-3-3-3-3-3-3-3-3-3-3-3---------------------------------1-1-1-1-1-1-1-1-3-3-3-3-3-3-3-3--|

|----------------------------------------------------------------------------------------
|.---------------------------------------------------------------------------------------
|.-0-0-0-0-0-0-0-0-----------------0-0-0-0-0-0-0-0-----------------0-0-0-0-0-0-0-0-------
|------------------1-1-1-1-3-3-3-3-----------------1-1-1-1-3-3-3-3-----------------1-1-1-

--------------------------------------------|--------------------------------------------
-------------------------------------------.|.-------------------------------------------
-------------------------------------------.|.-0-0-0-0-0-0-0-0-0-0-0-0-0-0-0-0-----------
1-3-3-3-3--1-1-1-1-1-1-1-1-3-3-3-3-3-3-3-3--|----------------------------------1-1-1-1-1-

---------------------------------------------------------------------------------------|-
--------------------------------------------------------------------------------------.|-
----------------------3-3-3-3-3-3-3-3-3-3-3-3-3-3-3-3---------------------------------.|-
1-1-1-1-1-1-1-1-1-1-1---------------------------------1-1-1-1-1-1-1-1-3-3-3-3-3-3-3-3--|-
                                               play 6 times, 6th time ritardando

-----------------------------------------------------------------------------------------
-----------------------------------------------------------------------------------------
-0-0-0-0-0-0-0-0----------------0-0-0-0-0-0-0-0----------------0-0-0-0-0-0-0-0-----------
------------------1-1-1-3--3-3-3-----------------1-1-1-3--3-3-3-----------------1-1-1-3--
 slower

-----------------------------------------------------------------------------------------
-----------------------------------------------------------------------------------------
----------------------------------------0-0-0-0-0-0-0-0----------------0-0-0-0-0-0-0-0---
3-3-3--1-1-1-1-1-1-1-1-3-3-3-3-3-3-3-3------------------1-1-1-3--3-3-3-----------------1-

-----------------------------------------------------------------------------------2---2-
---------------------------------------------------------------------------------2---2---
-------------0-0-0-0-0-0-0-0---------------------------------------------------0---------
1-1-3--3-3-3-----------------1-1-1-3--3-3-3--1-1-1-1-1-1-1-1-3-3-3-3-3-3-3-3-------------

--2---------------------2---2---2---------------------2---2---2---------------------2---2
2---2-----3------5----2---2---2---2-----3------5----2---2---2---2-----3------5----2---2--
--------3---.--5----0-----------------3---.--5----0-----------------3---.--5----0--------
------1-----3-----------------------1-----3-----------------------1-----3----------------

---2-------------------------------------------||
-2---2-----3------5----------------------------||
---------3---.--5----0-0---0-0---0-0---0-0-----||
-------1-----3---------------------------------||
         ritard
Comments