Iron Maiden - Deja Vu Chords & Tabs

 

Deja Vu Chords & Tabs

Iron Maiden Chords & Tabs

Version: 1 Type: Tab 0 ratings
1 star 2 stars 3 stars 4 stars 5 stars
comments

Deja Vu Tab

#----------------------------------PLEASE NOTE---------------------------------#
#This file is the author's own work and represents their interpretation of the #
#song. You may only use this file for private study, scholarship, or research. #
#------------------------------------------------------------------------------#
#


From wigren@skelleftea.mail.telia.com Sun May  4 11:03:15 1997
Date: Tue, 18 Mar 1997 15:13:34 +0100
From: wigren@skelleftea.mail.telia.com
To: Olga Guitar Tab 
Subject: Tab IRON MAIDEN Deja-vu




DEJA-VU
Written by Steve Harris and Dave Murray.
Performed by IRON MAIDEN.
Taken from the album SOMEWHERE IN TIME.

Transcribed by Oskar "The Seventh Son" Wigren.
E-mail me at wigren@skelleftea.mail.telia.com

Riff 1:
E-----------------------------|----------------------------|
B--------------0--1--3--1-----|-------------0--1--3--1-----|
G-----------2--2--2--2--2-----|----------2--2--2--2--2-----|
D--------2--2--2--2--2--2-----|-----2----2--2--2--2--2-----|
A-----0-----------------------|----------------------------|
E--0-----------------------0--|--1----------------------1--|

E-------------------------|----------------------------|
B--------------3----------|-----------0--1--3----1--0--|
G-----------0--2----0--0--|--------2--2--2--2----2--2--|
D--------2-----0----2--0--|-----2-----2--2--2----2--2--|
A-----2-------------3--2--|--0-------------------------|
E--0----------------------|----------------------------|

E-----------------------------|----------------------------|
B--------------0--1--3--1-----|-------------0--1--3--1-----|
G-----------2--2--2--2--2-----|----------2--2--2--2--2-----|
D--------2--2--2--2--2--2-----|-----2----2--2--2--2--2-----|
A-----0-----------------------|----------------------------|
E--0-----------------------0--|--1----------------------1--|

E-------------------------|-------------------------------------------------|
B--------------3----------|-----------0--1--3----3--3--1--1---1--------0----|
G-----------0--2----0--0--|--------2--2--2--2----2--2--2--2---2--------2----|
D--------2-----0----2--0--|-----2-----2--2--2----2--2--2--2---2--------2----|
A-----2-------------3--2--|--0-----------------------------------------0----|
E--0----------------------|-------------------------------------------------|

Riff 2:
E-------------8-9-11-9-8--------------|---------8-----------|
B--9-----9-11------------9---8-(9)----|--8-9-11---11-9-8----|
G-------------------------------------|---------------------|
D-------------------------------------|---------------------|
A-------------------------------------|---------------------|
E-------------------------------------|---------------------|

E-------------8-9-11-9-8--------------|---------8-----------|
B--9-----9-11------------9---8-(9)----|--8-9-11---11-9-8----|
G-------------------------------------|---------------------|
D-------------------------------------|---------------------|
A-------------------------------------|---------------------|
E-------------------------------------|---------------------|

E-------------8-9-11-9-8--------------|---------8-----------|
B--9-----9-11------------9---8-(9)----|--8-9-11---11-9-8----|
G-------------------------------------|---------------------|
D-------------------------------------|---------------------|
A-------------------------------------|---------------------|
E-------------------------------------|---------------------|

E-------------8-9-11-9-8--------------|
B--9-----9-11------------9---8-(9)----|
G-------------------------------------|
D-------------------------------------|
A-------------------------------------|
E-------------------------------------|

Riff 3:
E-------------------------------------------|--------------------------------------|
B-----13-9----11-9---------13-9----11-9-----|-----13-9----11-9---9-8-----11-9-8----|
G--10------10------10---10------10------10--|--10------10-----------10---------10--|
D-------------------------------------------|--------------------------------------|
A-------------------------------------------|--------------------------------------|
E-------------------------------------------|--------------------------------------|

Verse:

E----------------------------------------------------------------------------------|
B----------------------------------------------------------------------------------|
G--10--10-----10---10--10--10-----10---10--10--10-----10---10--10--10-----10---10--|
D--10--10-----10---10--10--10-----10---10--10--10-----10---10--10--10-----10---10--|
A--8---8--8-8-8--8-8---8---8--8-8-8--8-8---8---8--8-8-8--8-8---8---8--8-8-8--8-8---|
E----------------------------------------------------------------------------------|

               
             
E---------------------------------------------------------------------------------|
B---------------------------------------------------------------------------------|
G--8---8------8----8---8---8------8----8---8---8------8----8---8---8------8----8--|
D--8---8------8----8---8---8------8----8---8---8------8----8---8---8------8----8--|
A--6---6--6-6-6--6-6---6---6--6-6-6--6-6---6---6--6-6-6--6-6---6---6--6-6-6--6-6--|
E---------------------------------------------------------------------------------|


E----------------------------------------------------------------------------------|
B----------------------------------------------------------------------------------|
G--10--10-----10---10--10--10-----10---10--10--10-----10---10--10--10-----10---10--|
D--10--10-----10---10--10--10-----10---10--10--10-----10---10--10--10-----10---10--|
A--8---8--8-8-8--8-8---8---8--8-8-8--8-8---8---8--8-8-8--8-8---8---8--8-8-8--8-8---|
E----------------------------------------------------------------------------------|

               
              
E---------------------------------------------------------------------------------|
B---------------------------------------------------------------------------------|
G--8---8------8----8---8---8------8----8---8---8------8----8---8---8------8----8--|
D--8---8------8----8---8---8------8----8---8---8------8----8---8---8------8----8--|
A--6---6--6-6-6--6-6---6---6--6-6-6--6-6---6---6--6-6-6--6-6---6---6--6-6-6--6-6--|
E---------------------------------------------------------------------------------|


E----------------------------------------------------------------------------------|
B----------------------------------------------------------------------------------|
G--8---8------8----8---8---8------8----8---10--10-----10---10--10--10-----10---10--|
D--8---8------8----8---8---8------8----8---10--10-----10---10--10--10-----10---10--|
A--4---4--4-4-4--4-4---6---6--6-6-6--6-6---8---8--8-8-8--8-8---8---8--8-8-8--8-8---|
E----------------------------------------------------------------------------------|

[ Tab from: http://www.guitartabs.cc/tabs/i/iron_maiden/deja_vu_tab.html ]
E---------------------------------------------------------------------------------|
B---------------------------------------------------------------------------------|
G--8---8------8----8---8---8------8----8---10--10-----10---10--8---8------8----8--|
D--8---8------8----8---8---8------8----8---10--10-----10---10--8---8------8----8--|
A--4---4--4-4-4--4-4---6---6--6-6-6--6-6---8---8--8-8-8--8-8---6---6--6-6-6--6-6--|
E---------------------------------------------------------------------------------|

And you know when you feel          Deja......
E-----------------------------------------|
B-----------------------------------------|
G--8---8------8----8---8---8------8----8--|
D--8---8------8----8---8---8------8----8--|
A--4---4--4-4-4--4-4---6---6--6-6-6--6-6--|
E-----------------------------------------|

Riff 4:
...vu
E-------------------------------------------|
B-----13-9----11-9---------13-9----11-9-----|
G--10------10------10---10------10------10--|
D-------------------------------------------|
A-------------------------------------------|
E-------------------------------------------|

E-------------------------------------------|
B-----13-9----11-9---------13-9----11-9-----|
G--10------10------10---10------10------10--|
D-------------------------------------------|
A-------------------------------------------|
E-------------------------------------------|

Chorus:
Feel like I've been here before-----------------------------|
E----------------------------|------------------------------|
B----------------------------|------------------------------|
G--10---------------8--------|--10----------8-----8-8-8-10--|
D--10---------------8--------|--10----------8-----8-8-8-10--|
A--8----------------6--------|--8-----8-8-8-6-----6-6-6-8---|
E----------------------------|------------------------------|


E----------------------------|------------------------------|
B----------------------------|------------------------------|
G--10---------------8--------|--10-------6--------8---------|
D--10---------------8--------|--10-------6--------8---------|
A--8----------------6--------|--8--------4--------6---------|
E----------------------------|------------------------------|

Riff 5:
E--------------------------------8----8-9--|--8---------------------------|
B---------------------8-9-8-9-11---11------|----11-9-8-9-8----------------|
G-----------8-10-8-10----------------------|---------------10-8-----------|
D--11-10-11--------------------------------|--------------------10--------|
A------------------------------------------|------------------------------|
E------------------------------------------|------------------------------|

Riff 6:
E---------------------------------|---------------------------------|
B---------------------------------|---------------------------------|
G--6-6-6-6---6---6-6---6---6-6-8--|--6-6-6-6---6---6-6---6---6-6-8--|
D--6-6-6-6---6---6-6---6---6-6-8--|--6-6-6-6---6---6-6---6---6-6-8--|
A---------------------------------|---------------------------------|
E---------------------------------|---------------------------------|

E--------------------------------------------|
B--------------------------------------------|
G--10-10-10-10---10---10-10---10---10-10-13--|
D--10-10-10-10---10---10-10---10---10-10-13--|
A--------------------------------------------|
E--------------------------------------------|

E--------------------------------------------|
B--------------------------------------------|
G--10-10-10-10---10---10-10---10---10-10-13--|
D--10-10-10-10---10---10-10---10---10-10-13--|
A--------------------------------------------|
E--------------------------------------------|

E---------------------------------|---------------------------------|
B---------------------------------|---------------------------------|
G--6-6-6-6---6---6-6---6---6-6-8--|--6-6-6-6---6---6-6---6---6-6-8--|
D--6-6-6-6---6---6-6---6---6-6-8--|--6-6-6-6---6---6-6---6---6-6-8--|
A---------------------------------|---------------------------------|
E---------------------------------|---------------------------------|

E--------------------------------------|
B--9--9--9--9----8---8-8---8---8-9--8--|
G--8--8--8--8----8---8-8---8---8-8--8--|
D--10-10-10-10---8---8-8---8---8-10-8--|
A--------------------------------------|
E--------------------------------------|

E---------------------------------------|
B--9--9--9--9----8---9--8---8---8----8--|
G--8--8--8--8----8---8--8---8---8-10-8--|
D--10-10-10-10---8---10-8---8---8-8--8--|
A---------------------------------------|
E---------------------------------------|

Riff 7:
E-----------------------------------|-----------------------------------|
B--9-8--------------9-8-----9-8-----|--9-8--------------9-8-----9-8-----|
G----------8-10-----------------10--|----------8-10-----------------10--|
D-----------------------------------|-----------------------------------|
A-----------------------------------|-----------------------------------|
E-----------------------------------|-----------------------------------|

E-----------------------------------|-----------------------------------|
B--9-8--------------9-8-----9-8-----|--9-8--------------9-8-----9-8-----|
G----------8-10-----------------10--|----------8-10-----------------10--|
D-----------------------------------|-----------------------------------|
A-----------------------------------|-----------------------------------|
E-----------------------------------|-----------------------------------|

E----------------------------------|----------------------------------|
B--9-8--------------9-8-----9-8----|--9-8--------------9-8-----9-8----|
G----------8-10-----------------8--|----------8-10-----------------8--|
D----------------------------------|----------------------------------|
A----------------------------------|----------------------------------|
E----------------------------------|----------------------------------|

E----------------------------------|----------------------------------|
B--9-8--------------9-8-----9-8----|--9-8--------------9-8-----9-8----|
G----------8-10-----------------8--|----------8-10-----------------8--|
D----------------------------------|----------------------------------|
A----------------------------------|----------------------------------|
E----------------------------------|----------------------------------|

E----------------------------------|----------------------------------|
B--9-8--------------9-8-----9-8----|--9-8--------------9-8-----9-8----|
G----------8-10-----------------8--|----------8-10-----------------8--|
D----------------------------------|----------------------------------|
A----------------------------------|----------------------------------|
E----------------------------------|----------------------------------|

E----------------------------------|-----------------------------------|
B--9-8--------------9-8-----9-8----|--9-8--------------9-8-----9-8-----|
G----------8-10-----------------8--|----------8-10-----------------10--|
D----------------------------------|-----------------------------------|
A----------------------------------|-----------------------------------|
E----------------------------------|-----------------------------------|

Songstructure:
Riff 1
Riff 2
Riff 3(2 times)
Verse 1
Riff 4(2 times)
Chorus
Riff 2
Riff 5(2 times)
Riff 6
Riff 7(Solo)
Riff 3(2 times)
Verse 2
Riff 4(2 times)
Chorus
Riff 2
Riff 3(2 times)
END
Comments