Iron Maiden - Dance Of Death Chords & Tabs

 

Dance Of Death Chords & Tabs

Iron Maiden Chords & Tabs

Version: 2 Type: Tab 5 ratings
1 star 2 stars 3 stars 4 stars 5 stars
comments

Dance Of Death Tab

#--------------------------------Guitar Tab------------------------------------#
#                        Iron Maiden - Dance of Death                          #
#                            Tabbed By xavimei                                 #
#                           XaViMei@hotmail.com                                #
#------------------------------------------------------------------------------#


Intro
e:-------------|-------------|-------------|-------------|
B:----0---0----|----3---3----|-------------|-------------|
G:-------------|-------------|----2---2----|----0---0----|
D:--2---2---2--|--4---4---4--|--0---0---0--|-------------|
A:-------------|-------------|-------------|--3---3---3--|
E:-------------|-------------|-------------|-------------|

e:-------------|-------------|-------------|-------------|
B:-------------|-------------|----0---0----|----0---0----|
G:----0---0----|----2---2----|-------------|-------------|
D:-------------|--0---0---0--|--2---2---2--|--2---2---2--|
A:--3---3---3--|-------------|-------------|-------------|
E:-------------|-------------|-------------|-------------|

Clean palm mute  
e:---------------------------------------------------------|(01:08)
B:--5-5-5-5-5-5---8-8-8-8-8-8---3-3-3-3-3-3----------------|
G:--4-4-4-4-4-4---7-7-7-7-7-7---2-2-2-2-2-2---5-5-5-5-5-5--|
D:--2-2-2-2-2-2---5-5-5-5-5-5---0-0-0-0-0-0---5-5-5-5-5-5--|
A:--------------------------------------------3-3-3-3-3-3--|
E:---------------------------------------------------------|

e:--------------------------------------------------------|
B:--------------------------------------------------------|
G:-5-5-5-5-5-5---3-3-3-3-3-3---5-5-5-5-5-5---5-5-5-5-5-5--|
D:-5-5-5-5-5-5---2-2-2-2-2-2---4-4-4-4-4-4---4-4-4-4-4-4--|
A:-3-3-3-3-3-3---0-0-0-0-0-0---2-2-2-2-2-2---2-2-2-2-2-2--|
E:--------------------------------------------------------|
  
Clean (same chords) 
e:-------------------------------------------------|(01:43)
B:--5-5-5-5-5---8-8-8-8-8---3-3-3-3-3--------------|
G:--4-4-4-4-4---7-7-7-7-7---2-2-2-2-2---5-5-5-5-5--|
D:--2-2-2-2-2---5-5-5-5-5---0-0-0-0-0---5-5-5-5-5--|
A:--------------------------------------3-3-3-3-3--|
E:-------------------------------------------------|

e:------------------------------------------------|
B:------------------------------------------------|
G:-5-5-5-5-5---3-3-3-3-3---5-5-5-5-5---5-5-5-5-5--|
D:-5-5-5-5-5---2-2-2-2-2---4-4-4-4-4---4-4-4-4-4--|
A:-3-3-3-3-3---0-0-0-0-0---2-2-2-2-2---2-2-2-2-2--|
E:------------------------------------------------|
[ Tab from: http://www.guitartabs.cc/tabs/i/iron_maiden/dance_of_death_tab_ver_2.html ]
Little solo (something like this)
e:------------------------------------------------------------------------------------|(02:59)
B:------------------------------------------------------------------------------------|
G:------11-12-11---------------11-12-11----------------11-12-11----------11-11-11-11--|
D:---14----------14-12-14---14----------14--12-14---14----------14-14-14--------------|
A:------------------------------------------------------------------------------------|
E:------------------------------------------------------------------------------------|
  
With Distortion
e:--------------------------------|(03:30)
B:--5--7--8---10--3--9--5---5--4--|
G:--4--6--7----9--2--7--4---5--2--|
D:--2--4--5----7--0--5--2---3--0--|
A:--------------------------------|
E:--------------------------------|

With Distortion (something like this)
e:------------------------------------------------------------------------------------|(04:01)
B:------------------------------------------------------------------------------------|
G:------11-12-11---------------11-12-11----------------11-12-11----------11-11-11-11--|
D:---14----------14-12-14---14----------14--12-14---14----------14-14-14--------------|
A:------------------------------------------------------------------------------------|
E:------------------------------------------------------------------------------------|

Distortion (with solo)
e:--------------------------------|(04:31)
B:--5--7--8---10--3--9--5---5--4--|
G:--4--6--7----9--2--7--4---5--2--|
D:--2--4--5----7--0--5--2---3--0--|
A:--------------------------------|
E:--------------------------------|

Distortion (something like this)
e:------------------------------------------------------------------------------------|(06:56)
B:------------------------------------------------------------------------------------|
G:------11-12-11---------------11-12-11----------------11-12-11----------11-11-11-11--|
D:---14----------14-12-14---14----------14--12-14---14----------14-14-14--------------|
A:------------------------------------------------------------------------------------|
E:------------------------------------------------------------------------------------|

Outro (with little solo)
e:-------------|-------------|-------------|-------------|(07:46)
B:----0---0----|----3---3----|-------------|-------------|
G:-------------|-------------|----2---2----|----0---0----|
D:--2---2---2--|--4---4---4--|--0---0---0--|-------------|
A:-------------|-------------|-------------|--3---3---3--|
E:-------------|-------------|-------------|-------------|

e:-------------|-------------|-------------|-------------|
B:-------------|-------------|----0---0----|----0---0----|
G:----0---0----|----2---2----|-------------|-------------|
D:-------------|--0---0---0--|--2---2---2--|--2---2---2--|
A:--3---3---3--|-------------|-------------|-------------|
E:-------------|-------------|-------------|-------------|
Comments