Iron Maiden - Dance Of Death Chords & Tabs

 

Dance Of Death Chords & Tabs

Iron Maiden Chords & Tabs

Version: 11 Type: Tab 0 ratings
1 star 2 stars 3 stars 4 stars 5 stars
comments

Dance Of Death Tab

   
Intro:
Guitar 1
    E           G/F#        D
e|-------------------------------------|
B|-------------------------------------|
G|-------------------------------------|
D|----9---9------12--12-------7---7----|\
A|--7---7---7---9---9---9---5---5---5--| \
E|-------------------------------------|  \
    C           C           D              \
e|-------------------------------------|    \
B|-------------------------------------|     \
G|-------------------------------------|     2x
D|----5---5-------5---5-------7---7----|     /
A|--3---3---3---3---3---3---5---5---5--|    /
E|-------------------------------------|   /
    E           E                         /
e|-------------------------|             /
B|-------------------------|            /
G|-------------------------|           /
D|----9---9-------9---9----|__________/
A|--7---7---7---7---7---7--|
E|-------------------------|
    E           G/F#        D
e|-------------------------------------|
B|-------------------------------------|
G|-------------------------------------|
D|----9---9------12--12-------7---7----|
A|--7---7---7---9---9---9---5---5---5--|
E|-------------------------------------|
    A           C           D
e|-------------------------------------|
B|-------------------------------------|
G|-------------------------------------|
D|----2---2-------5---5-------7---7----|
A|--0---0---0---3---3---3---5---5---5--|
E|-------------------------------------|
    E           E
e|-------------------------|
B|-------------------------|
G|-------------------------|
D|----9---9-------9---9----|
A|--7---7---7---7---7---7--|
E|-------------------------|

Guitar 2
e|-----------------------7-7-----------------|
B|------7---8--10-8----------10--8-7---------|
G|--9----------------9---------------9-------|
D|-------------------------------------------|
A|-------------------------------------------|
E|-------------------------------------------|

e|--7-7-10--7-----------------7-7------------|
B|------------10--8--10-8---------10--8-7----|
G|------------------------9---------------9--|
D|-------------------------------------------|
A|-------------------------------------------|
E|-------------------------------------------|

Vers 1: 2x
Guitar 1
    E           G/F#        D
e|-------------------------------------|
B|-------------------------------------|
G|-------------------------------------|
D|----9---9------12--12-------7---7----|
A|--7---7---7---9---9---9---5---5---5--|
E|-------------------------------------|
    C           C           D
e|-------------------------------------|
B|-------------------------------------|
G|-------------------------------------|
D|----5---5-------5---5-------7---7----|
A|--3---3---3---3---3---3---5---5---5--|
E|-------------------------------------|
    E           E
e|-------------------------|
B|-------------------------|
G|-------------------------|
D|----9---9-------9---9----|
A|--7---7---7---7---7---7--|
E|-------------------------|
    E           G/F#        D
e|-------------------------------------|
B|-------------------------------------|
G|-------------------------------------|
D|----9---9------12--12-------7---7----|
A|--7---7---7---9---9---9---5---5---5--|
E|-------------------------------------|
    A           C           D
e|-------------------------------------|
B|-------------------------------------|
G|-------------------------------------|
D|----2---2-------5---5-------7---7----|
A|--0---0---0---3---3---3---5---5---5--|
E|-------------------------------------|
    E           E
e|-------------------------|
B|-------------------------|
G|-------------------------|
D|----9---9-------9---9----|
A|--7---7---7---7---7---7--|
E|-------------------------|

Vers 2: 2x
Guitar 1
| E5 | G5/F# | D5 | C5 |

| C5 | D5 | E5 | E5 |

| E5 | G5/F# | D5 | A5 |

| C5 | D5 | E5 | E5 |

Guitar 2
e|--------------------------------|
B|--------------------------------|
G|--(9)-(9)-9--7------------------|
D|---------------10-9-7-9-10-9~~--| 3x
A|--------------------------------|
E|--------------------------------|

Vers 3:
| E5 | G5/F# D5 | 2x
                        ___
| E5 | G5/F# | D5 | C5 |   \
                            \
| C5 | D5 | E5 | G5/F# D5 |  \
                             2x
| E5 | G5/F# | D5 | A5 |     /
                            /
| C5 | D5 | E5 | G5/F# D5 |/

| E5 | G5/F# | D5 | C5 |

| C5 | D5 | E5 | G5/F# D5 |

| E5 | G5/F# | D5 | A5 |

| C5 | D5 | Em |
[ Tab from: http://www.guitartabs.cc/tabs/i/iron_maiden/dance_of_death_tab_ver_11.html ]
Bridge:
e|-----------------|
B|----7-8-7--------|
G|--9-------9-7-9--|
D|-----------------| 3x
A|-----------------|
E|-----------------|

e|-----------------|
B|----7-7--7-7-7---|
G|--9--------------|
D|-----------------|
A|-----------------|
E|-----------------|

e|-----------------|
B|----7-8-7--------|
G|--9-------9-7-9--|
D|-----------------|
A|-----------------|
E|-----------------|

e|----------------------7------------|\
B|----7-8-7---7-8--8-10---10-8-7-8---| \
G|--9-------9------------------------|  \
D|-----------------------------------|   \
A|-----------------------------------|    \
E|-----------------------------------|     \
                                           2x
e|-----------------------------------|     /
B|----7-8-7-----7----7-8-7-----------|    /
G|--9-------9-7----9-------9-7-9-----|   /
D|-----------------------------------|  /
A|-----------------------------------| /
E|-----------------------------------|/

e|-----------------|\
B|----7-8-7--------| \
G|--9-------9-7-9--|  \
D|-----------------| 2x\
A|-----------------|    \
E|-----------------|     \
                          \
e|-----------------|       \
B|----7-7--7-7-7---|        \
G|--9--------------|        2x
D|-----------------|        /
A|-----------------|       /
E|-----------------|      /
                         /
e|-----------------|    /
B|----7-8-7--------|   /
G|--9-------9-7-9--|  /
D|-----------------| /
A|-----------------|/
E|-----------------|

e|----------------------7------------|\
B|----7-8-7---7-8--8-10---10-8-7-8---| \
G|--9-------9------------------------|  \
D|-----------------------------------|   \
A|-----------------------------------|    \
E|-----------------------------------|     \
                                           2x
e|-----------------------------------|     /
B|----7-8-7-----7----7-8-7-----------|    /
G|--9-------9-7----9-------9-7-9-----|   /
D|-----------------------------------|  /
A|-----------------------------------| /
E|-----------------------------------|/

Chorus:
Guitar 1
| E5 | G5 | D5 | E5 | 4x

Guitar 2
e|----------------------|
B|----------------------|
G|----------------------|
D|--10-9-7----7---------|
A|---------10---10-9-7--|
E|----------------------|

| C5 | B5 |

e|----------------------|
B|----------------------|
G|----------------------|
D|--10-9-7----7---------|
A|---------10---10-9-7--|
E|----------------------|

| C5 | B5 |

Bridge 2: 2x
e|-----------------|\
B|----7-8-7--------| \
G|--9-------9-7-9--|  \
D|-----------------| 2x\
A|-----------------|    \
E|-----------------|     \
                          \
e|-----------------|       \
B|----7-7--7-7-7---|        \
G|--9--------------|        2x
D|-----------------|        /
A|-----------------|       /
E|-----------------|      /
                         /
e|-----------------|    /
B|----7-8-7--------|   /
G|--9-------9-7-9--|  /
D|-----------------| /
A|-----------------|/
E|-----------------|

e|----------------------7------------|\
B|----7-8-7---7-8--8-10---10-8-7-8---| \
G|--9-------9------------------------|  \
D|-----------------------------------|   \
A|-----------------------------------|    \
E|-----------------------------------|     \
                                           2x
e|-----------------------------------|     /
B|----7-8-7-----7----7-8-7-----------|    /
G|--9-------9-7----9-------9-7-9-----|   /
D|-----------------------------------|  /
A|-----------------------------------| /
E|-----------------------------------|/

Solo:

(Chorus)

| F#5 | D5 | E5 | F#5 | 6x

| E5 | G5 | D5 | E5 | 10x

(Bridge 2) 3x

| D5 E5 | G5 E5 | D5 E5 |

Outro:

(Intro)

    E           G/F#        D
e|-------------------------------------|
B|-------------------------------------|
G|-------------------------------------|
D|----9---9------12--12-------7---7----|
A|--7---7---7---9---9---9---5---5---5--|
E|-------------------------------------|
    C           C           D
e|-------------------------------------|
B|-------------------------------------|
G|-------------------------------------|
D|----5---5-------5---5-------7---7----|
A|--3---3---3---3---3---3---5---5---5--|
E|-------------------------------------|
    E           E
e|-------------------------|
B|-------------------------|
G|-------------------------|
D|----9---9-------9---9----|
A|--7---7---7---7---7---7--|
E|-------------------------|
    E           G/F#        D
e|-------------------------------------|
B|-------------------------------------|
G|-------------------------------------|
D|----9---9------12--12-------7---7----|
A|--7---7---7---9---9---9---5---5---5--|
E|-------------------------------------|
    A           C           D
e|-------------------------------------|
B|-------------------------------------|
G|-------------------------------------|
D|----2---2-------5---5-------7---7----|
A|--0---0---0---3---3---3---5---5---5--|
E|-------------------------------------|
    Em
e|------------7--------|
B|----------8----------|
G|--------9---------8--|
D|------9--------9-----|
A|----7----------------|
E|--7------------------|
Comments