Iron Maiden - Charlotte The Harlot Chords & Tabs

 

Charlotte The Harlot Chords & Tabs

Iron Maiden Chords & Tabs

Version: 1 Type: Tab 0 ratings
1 star 2 stars 3 stars 4 stars 5 stars
comments

Charlotte The Harlot Tab

   
IRON MAIDEN
CHARLOTTE THE HARLOT
WRITTEN BY DAVE MURRAY
TAKEN FROM THE ALBUM IRON MAIDEN

INTRO (the very beggining is bass but then dave plays it on guitar)
|--------------------------------------------------------
|-10---8--7----------------------------------------------
|------------9--7--7--7h9--9-9--9p7--7-7--7--7--9--9-9---
|--------------------------------------------------------
|--------------------------------------------------------
|--------------------------------------------------------
[ Tab from: http://www.guitartabs.cc/tabs/i/iron_maiden/charlotte_the_harlot_tab.html ]
|-------------------------------------------------------------------------
|---------------------------10---8--7--8-10---8--7--8-10---8--7--10--8--7-
|-9p7--7-7--7--7--9--9-9--------------------------------------------------
|-------------------------------------------------------------------------
|-------------------------------------------------------------------------
|-------------------------------------------------------------------------
 E5     G5     D5  
|-----------------|------|
|-----------------|------|
|-9-----12--x-----|-.----|
|-9-----12--x--12-|--/---|
|-7-----10--x--12-|---.--|
|--------------10-|------|

VERSE
|----------------------------|---------------------------|
|----------------------------|---------------------------|
|.-9-9-9-9--9--12-12-x-------|-9-9-9-9--9--12-12-x------.|
|.-9-9-9-9--9--12-12-x-12-12-|-9-9-9-9--9--12-12-x-12---.|
|--7-7-7-7--7--10-10-x-12-12-|-7-7-7-7--7--10-10-x-12----|
|----------------------10-10-|---------------------10----|

CHORUS
|----------------------------|------------------------------|
|----------------------------|------------------------------|
|.-9-9-9-9--9--12--12-12-----|--------------------------9--.|
|.-9-9-9-9--9--12--12-12--12-|-12-12-12-12--12--9--9-9--9--.|
|--7-7-7-7--7--10--10-10--12-|-12-12-12-10--10--9--9-9--7---|
|-------------------------10-|-10-10-10-10--10--7--7-7------|

this is all i got for now.email me at hagsironmaiden8@aol.com if
you got any other parts down or solos or anything. up the irons...

Comments