Iron Maiden - Can I Play With Madness Chords & Tabs

 

Can I Play With Madness Chords & Tabs

Iron Maiden Chords & Tabs

Version: 4 Type: Tab 0 ratings
1 star 2 stars 3 stars 4 stars 5 stars
comments

Can I Play With Madness Tab

Iron Maiden
Can I Play With Madness
From The 1988 Album: Seventh Son Of A Seventh Son

Key
hb = hold bend
rb = release bend
b  = bend up
r  = rebend            
/  = slide
vv = vibrato



Intro Riff/Verse:

Guitar 1
e|-2--------0----0------3------3-2-3-2-3-|     \
B|-3--------1----1------0------3-3-3-3-3-|      \
G|-2--------0----0------0----------------|       \
D|-0--------2----2------0----------------|   x 2  \
A|----------3----3------2----------------|         \
E|----------------------3----------------|          \
                                                     \
Guitar 2                                             /
e|---------------------------------------|          /
B|---------------------------------------|         /
G|---------------------------------------|        /
D|--00000000-0000--0000------------------|   x 2 /
A|---------------------------------------|      /
E|---------------------------------------|     /

Guitar 1
e|-2---------0---------3----------3-2-3-2-3--|     \
B|-3---------1---------0----------3-3-3-3-3--|      \
G|-2---------0---------0---------------------|       \
D|-0---------2---------0---------------------|   x 4  \
A|-----------3---------2---------------------|         \
E|---------------------3---------------------|          \
                                                         \
Guitar 2                                                 /
e|---------------------------------------|              /
B|---------------------------------------|             /
G|---------------------------------------|            /
D|---00000000--00000000--0000000---------|   x 4     /
A|---------------------------------------|          /
E|---------------------------------------|         /

Guitar 1
e|------------------------------|
B|-3-----3-----3----------------|
G|-2--2--2--2--2--2-------------|
D|-0--2--0--2--0--2-------------|
A|----0-----0-----0-------------|
E|------------------------------|

Chorus:

Guitar 1
e|-10--12--14---|     \ 
B|-10-----------|      \
G|--------------|       \
D|--------------|        \
A|--------------|         \
E|--------------|          \
                            \
Guitar 2                    /
e|--------------|          /
B|--------------|         /
G|-4------------|        /
D|-4------------|       /
A|-2--2-2-2-2-2-|      /
E|--------------|     /

Guitar 1
e|-10--12--14---|     \
B|-10-----------|      \ 
G|--------------|       \
D|--------------|        \
A|--------------|         \
E|--------------|          \
                            \
Guitar 2                    /
e|--------------|          /
B|--------------|         /
G|--------------|        /
D|-5------------|       /
A|-5------------|      /
E|-3--3-3-3-3-3-|     /

Guitar 1
e|-10--12--14---|     \
B|-10-----------|      \
G|--------------|       \
D|--------------|        \
A|--------------|         \
E|--------------|          \
                            \
Guitar 2                    /
e|--------------|          /
B|-3------------|         /
G|-2------------|        /
D|-0--0-0-0-0-0-|       /
A|--------------|      /
E|--------------|     /

Guitar 1
e|----------------|
B|------3-2-------|
G|-2--2-----4-2---|
D|-2------------4-|
A|-0--------------|
E|----------------|

Guitar 1
e|-10--12--14---|     \ 
B|-10-----------|      \
G|--------------|       \
D|--------------|        \
A|--------------|         \
E|--------------|          \
                            \
Guitar 2                    /
e|--------------|          /
B|--------------|         /
G|-4------------|        /
D|-4------------|       /
A|-2--2-2-2-2-2-|      /
E|--------------|     /

Guitar 1
e|-10--12--14---|     \
B|-10-----------|      \ 
G|--------------|       \
D|--------------|        \
A|--------------|         \
E|--------------|          \
                            \
Guitar 2                    /
e|--------------|          /
B|--------------|         /
G|--------------|        /
D|-5------------|       /
A|-5------------|      /
E|-3--3-3-3-3-3-|     /

Guitar 1
e|-10--12--14---|     \ 
B|-10-----------|      \
G|--------------|       \
D|--------------|        \
A|--------------|         \
E|--------------|          \
                            \
Guitar 2                    /
e|--------------|          /
B|--------------|         /
G|--------------|        /
D|-2------------|       /
A|-2------------|      /
E|-0--0-0-0-0-0-|     /

Guitar 1
e|--------------|
B|--------------|
G|-----0-2-4-2--|
D|-2-4----------|
A|--------------|
E|--------------|

Guitar 1
e|-10--12--14---|     \ 
B|-10-----------|      \
G|--------------|       \
D|--------------|        \
A|--------------|         \
E|--------------|          \
                            \
Guitar 2                    /
e|--------------|          /
B|--------------|         /
G|-4------------|        /
D|-4------------|       /
A|-2--2-2-2-2-2-|      /
E|--------------|     /

Guitar 1
e|-10--12--14---|     \
B|-10-----------|      \ 
G|--------------|       \
D|--------------|        \
A|--------------|         \
E|--------------|          \
                            \
Guitar 2                    /
e|--------------|          /
B|--------------|         /
G|--------------|        /
D|-5------------|       /
A|-5------------|      /
E|-3--3-3-3-3-3-|     /

Guitar 1
e|-10--12--14---|     \
B|-10-----------|      \
G|--------------|       \
D|--------------|        \
A|--------------|         \
E|--------------|          \
                            \
Guitar 2                    /
e|--------------|          /
B|-3------------|         /
G|-2------------|        /
D|-0--0-0-0-0-0-|       /
A|--------------|      /
E|--------------|     /

Guitar 1
e|----------------|
B|------3-2-------|
G|-2--2-----4-2---|
D|-2------------4-|
A|-0--------------|
E|----------------|


Guitar 1
e|-10--12--14---|     \ 
B|-10-----------|      \
G|--------------|       \
D|--------------|        \
A|--------------|         \
E|--------------|          \
                            \
Guitar 2                    /
e|--------------|          /
B|--------------|         /
G|-4------------|        /
D|-4------------|       /
A|-2--2-2-2-2-2-|      /
E|--------------|     /

Guitar 1
e|-10--12--14---|     \
B|-10-----------|      \ 
G|--------------|       \
D|--------------|        \
A|--------------|         \
E|--------------|          \
                            \
Guitar 2                    /
e|--------------|          /
B|--------------|         /
G|--------------|        /
D|-5------------|       /
A|-5------------|      /
E|-3--3-3-3-3-3-|     /

e|------------------------------|
B|-3-----3-----3----------------|
G|-2--2--2--2--2--2-------------|
D|-0--2--0--2--0--2-------------|
A|----0-----0-----0-------------|
E|------------------------------|

Verse/Intro Riff:

Guitar 1
e|-2--------0----0------3------3-2-3-2-3-|     \
B|-3--------1----1------0------3-3-3-3-3-|      \
G|-2--------0----0------0----------------|       \
D|-0--------2----2------0----------------|   x 2  \
A|----------3----3------2----------------|         \
E|----------------------3----------------|          \
                                                     \
Guitar 2                                             /
e|---------------------------------------|          /
B|---------------------------------------|         /
G|---------------------------------------|        /
D|--00000000-0000--0000------------------|   x 2 /
A|---------------------------------------|      /
E|---------------------------------------|     /

Guitar 1
e|-2---------0---------3----------3-2-3-2-3--|     \
B|-3---------1---------0----------3-3-3-3-3--|      \
G|-2---------0---------0---------------------|       \
D|-0---------2---------0---------------------|   x 4  \
A|-----------3---------2---------------------|         \
E|---------------------3---------------------|          \
                                                         \
Guitar 2                                                 /
e|---------------------------------------|              /
B|---------------------------------------|             /
G|---------------------------------------|            /
D|---00000000--00000000--0000000---------|   x 4     /
A|---------------------------------------|          /
E|---------------------------------------|         /

Guitar 1
e|------------------------------|
B|-3-----3-----3----------------|
G|-2--2--2--2--2--2-------------|
D|-0--2--0--2--0--2-------------|
A|----0-----0-----0-------------|
E|------------------------------|

Chorus:

Guitar 1
e|-10--12--14---|     \ 
B|-10-----------|      \
G|--------------|       \
D|--------------|        \
A|--------------|         \
E|--------------|          \
                            \
Guitar 2                    /
e|--------------|          /
B|--------------|         /
G|-4------------|        /
D|-4------------|       /
A|-2--2-2-2-2-2-|      /
E|--------------|     /

Guitar 1
e|-10--12--14---|     \
B|-10-----------|      \ 
G|--------------|       \
D|--------------|        \
A|--------------|         \
E|--------------|          \
                            \
Guitar 2                    /
e|--------------|          /
B|--------------|         /
G|--------------|        /
D|-5------------|       /
A|-5------------|      /
E|-3--3-3-3-3-3-|     /

Guitar 1
e|-10--12--14---|     \
B|-10-----------|      \
G|--------------|       \
D|--------------|        \
A|--------------|         \
E|--------------|          \
                            \
Guitar 2                    /
e|--------------|          /
B|-3------------|         /
G|-2------------|        /
D|-0--0-0-0-0-0-|       /
A|--------------|      /
E|--------------|     /

Guitar 1
e|----------------|
B|------3-2-------|
G|-2--2-----4-2---|
D|-2------------4-|
A|-0--------------|
E|----------------|
[ Tab from: http://www.guitartabs.cc/tabs/i/iron_maiden/can_i_play_with_madness_tab_ver_4.html ]
Guitar 1
e|-10--12--14---|     \ 
B|-10-----------|      \
G|--------------|       \
D|--------------|        \
A|--------------|         \
E|--------------|          \
                            \
Guitar 2                    /
e|--------------|          /
B|--------------|         /
G|-4------------|        /
D|-4------------|       /
A|-2--2-2-2-2-2-|      /
E|--------------|     /

Guitar 1
e|-10--12--14---|     \
B|-10-----------|      \ 
G|--------------|       \
D|--------------|        \
A|--------------|         \
E|--------------|          \
                            \
Guitar 2                    /
e|--------------|          /
B|--------------|         /
G|--------------|        /
D|-5------------|       /
A|-5------------|      /
E|-3--3-3-3-3-3-|     /

Guitar 1
e|-10--12--14---|     \ 
B|-10-----------|      \
G|--------------|       \
D|--------------|        \
A|--------------|         \
E|--------------|          \
                            \
Guitar 2                    /
e|--------------|          /
B|--------------|         /
G|--------------|        /
D|-2------------|       /
A|-2------------|      /
E|-0--0-0-0-0-0-|     /

Guitar 1
e|--------------|
B|--------------|
G|-----0-2-4-2--|
D|-2-4----------|
A|--------------|
E|--------------|

Guitar 1
e|-10--12--14---|     \ 
B|-10-----------|      \
G|--------------|       \
D|--------------|        \
A|--------------|         \
E|--------------|          \
                            \
Guitar 2                    /
e|--------------|          /
B|--------------|         /
G|-4------------|        /
D|-4------------|       /
A|-2--2-2-2-2-2-|      /
E|--------------|     /

Guitar 1
e|-10--12--14---|     \
B|-10-----------|      \ 
G|--------------|       \
D|--------------|        \
A|--------------|         \
E|--------------|          \
                            \
Guitar 2                    /
e|--------------|          /
B|--------------|         /
G|--------------|        /
D|-5------------|       /
A|-5------------|      /
E|-3--3-3-3-3-3-|     /

Guitar 1
e|-10--12--14---|     \
B|-10-----------|      \
G|--------------|       \
D|--------------|        \
A|--------------|         \
E|--------------|          \
                            \
Guitar 2                    /
e|--------------|          /
B|-3------------|         /
G|-2------------|        /
D|-0--0-0-0-0-0-|       /
A|--------------|      /
E|--------------|     /

Guitar 1
e|----------------|
B|------3-2-------|
G|-2--2-----4-2---|
D|-2------------4-|
A|-0--------------|
E|----------------|


Guitar 1
e|-10--12--14---|     \ 
B|-10-----------|      \
G|--------------|       \
D|--------------|        \
A|--------------|         \
E|--------------|          \
                            \
Guitar 2                    /
e|--------------|          /
B|--------------|         /
G|-4------------|        /
D|-4------------|       /
A|-2--2-2-2-2-2-|      /
E|--------------|     /

Guitar 1
e|-10--12--14---|     \
B|-10-----------|      \ 
G|--------------|       \
D|--------------|        \
A|--------------|         \
E|--------------|          \
                            \
Guitar 2                    /
e|--------------|          /
B|--------------|         /
G|--------------|        /
D|-5------------|       /
A|-5------------|      /
E|-3--3-3-3-3-3-|     /

e|------------------------------|
B|-3-----3-----3----------------|
G|-2--2--2--2--2--2-------------|
D|-0--2--0--2--0--2-------------|
A|----0-----0-----0-------------|
E|------------------------------|


Prep Solo Riff:

Guitar 1
e|-----------------------------------------|
B|-----------------------------------------|
G|-----------------------------------------|
D|----------------5-------------------5--7-|   x 2
A|--7---7-7-7-5---------7---7-7-7-5--------|
E|--------------7-------------------7------|

Guitar 1
e|-----------------------------------------|
B|-----------------------------------------|
G|----------------3-------------------3--5-|
D|--5---5-5-5-4---------5---5-5-5-4--------|   x 2
A|--------------5-------------------5------|
E|-----------------------------------------|

Guitar Solo:

Guitar 1
e|------------------------------|
B|-----20-----------20b(22)r20--|
G|-19hb--19rb-----16------------|
D|------------------------------|
A|------------------------------|
E|------------------------------|

Guitar 1
e|------------------------------|
B|------------------------------|
G|------------------------------|
D|--7---7b(9)--5-7-7------------|
A|------------------------------|
E|------------------------------|

Guitar 1
e|------------------------------------|
B|------------------------------------|
G|------12-14-14b(16)r14--12--14/12---|
D|--14--------------------------------|
A|------------------------------------|
E|------------------------------------|

Guitar 1
e|----------------|
B|--15--15b(17)---|
G|----------------|
D|----------------|
A|----------------|
E|----------------|

Guitar 1
e|-------------------------------|
B|-------------------------------|
G|----------15-17-18--15-17-15vv-|
D|-5-5---17----------------------|
A|-5-5---------------------------|
E|-3-3---------------------------|

Guitar 1
e|---------------|
B|---------------|
G|------3--------|
D|-5-5--3--------|
A|-5-5--1--------|
E|-3-3-----------|

Guitar 1
e|------------------------------|
B|------------------------------|
G|------------------------------|
D|-5-5-----17-\/\Pick-Slide/\/--|
A|-5-5-----17-\/\Pick-Slide/\/--|
E|-3-3--------------------------|

Guitar 1
e|------------------------------|
B|-3-----3-----3----------------|
G|-2--2--2--2--2--2-------------|
D|-0--2--0--2--0--2-------------|
A|----0-----0-----0-------------|
E|------------------------------|

Chorus:

Guitar 1
e|-10--12--14---|     \ 
B|-10-----------|      \
G|--------------|       \
D|--------------|        \
A|--------------|         \
E|--------------|          \
                            \
Guitar 2                    /
e|--------------|          /
B|--------------|         /
G|-4------------|        /
D|-4------------|       /
A|-2--2-2-2-2-2-|      /
E|--------------|     /

Guitar 1
e|-10--12--14---|     \
B|-10-----------|      \ 
G|--------------|       \
D|--------------|        \
A|--------------|         \
E|--------------|          \
                            \
Guitar 2                    /
e|--------------|          /
B|--------------|         /
G|--------------|        /
D|-5------------|       /
A|-5------------|      /
E|-3--3-3-3-3-3-|     /

Guitar 1
e|-10--12--14---|     \
B|-10-----------|      \
G|--------------|       \
D|--------------|        \
A|--------------|         \
E|--------------|          \
                            \
Guitar 2                    /
e|--------------|          /
B|-3------------|         /
G|-2------------|        /
D|-0--0-0-0-0-0-|       /
A|--------------|      /
E|--------------|     /

Guitar 1
e|----------------|
B|------3-2-------|
G|-2--2-----4-2---|
D|-2------------4-|
A|-0--------------|
E|----------------|

Guitar 1
e|-10--12--14---|     \ 
B|-10-----------|      \
G|--------------|       \
D|--------------|        \
A|--------------|         \
E|--------------|          \
                            \
Guitar 2                    /
e|--------------|          /
B|--------------|         /
G|-4------------|        /
D|-4------------|       /
A|-2--2-2-2-2-2-|      /
E|--------------|     /

Guitar 1
e|-10--12--14---|     \
B|-10-----------|      \ 
G|--------------|       \
D|--------------|        \
A|--------------|         \
E|--------------|          \
                            \
Guitar 2                    /
e|--------------|          /
B|--------------|         /
G|--------------|        /
D|-5------------|       /
A|-5------------|      /
E|-3--3-3-3-3-3-|     /

Guitar 1
e|-10--12--14---|     \ 
B|-10-----------|      \
G|--------------|       \
D|--------------|        \
A|--------------|         \
E|--------------|          \
                            \
Guitar 2                    /
e|--------------|          /
B|--------------|         /
G|--------------|        /
D|-2------------|       /
A|-2------------|      /
E|-0--0-0-0-0-0-|     /

Guitar 1
e|--------------|
B|--------------|
G|-----0-2-4-2--|
D|-2-4----------|
A|--------------|
E|--------------|

Guitar 1
e|-10--12--14---|     \ 
B|-10-----------|      \
G|--------------|       \
D|--------------|        \
A|--------------|         \
E|--------------|          \
                            \
Guitar 2                    /
e|--------------|          /
B|--------------|         /
G|-4------------|        /
D|-4------------|       /
A|-2--2-2-2-2-2-|      /
E|--------------|     /

Guitar 1
e|-10--12--14---|     \
B|-10-----------|      \ 
G|--------------|       \
D|--------------|        \
A|--------------|         \
E|--------------|          \
                            \
Guitar 2                    /
e|--------------|          /
B|--------------|         /
G|--------------|        /
D|-5------------|       /
A|-5------------|      /
E|-3--3-3-3-3-3-|     /

Guitar 1
e|-10--12--14---|     \
B|-10-----------|      \
G|--------------|       \
D|--------------|        \
A|--------------|         \
E|--------------|          \
                            \
Guitar 2                    /
e|--------------|          /
B|-3------------|         /
G|-2------------|        /
D|-0--0-0-0-0-0-|       /
A|--------------|      /
E|--------------|     /

Guitar 1
e|----------------|
B|------3-2-------|
G|-2--2-----4-2---|
D|-2------------4-|
A|-0--------------|
E|----------------|


Guitar 1
e|-10--12--14---|     \ 
B|-10-----------|      \
G|--------------|       \
D|--------------|        \
A|--------------|         \
E|--------------|          \
                            \
Guitar 2                    /
e|--------------|          /
B|--------------|         /
G|-4------------|        /
D|-4------------|       /
A|-2--2-2-2-2-2-|      /
E|--------------|     /

Guitar 1
e|-10--12--14---|     \
B|-10-----------|      \ 
G|--------------|       \
D|--------------|        \
A|--------------|         \
E|--------------|          \
                            \
Guitar 2                    /
e|--------------|          /
B|--------------|         /
G|--------------|        /
D|-5------------|       /
A|-5------------|      /
E|-3--3-3-3-3-3-|     /

e|------------------------------|
B|-3-----3-----3----------------|
G|-2--2--2--2--2--2-------------|
D|-0--2--0--2--0--2-------------|
A|----0-----0-----0-------------|
E|------------------------------|
Comments