Iron Maiden - Can I Play With Madness Chords & Tabs

 

Can I Play With Madness Chords & Tabs

Iron Maiden Chords & Tabs

Version: 3 Type: Tab 0 ratings
1 star 2 stars 3 stars 4 stars 5 stars
comments

Can I Play With Madness Tab

Im 99% this is correct

---------------
---------------
---------------
---------------
--5-7-777-5----
------------7--  Repeat 4x

---------------
---------------
---------------
--4-5-555-4-0--
---------------
---------------  Repeat 4x

---------------------------
-----20----------20----20--
--19----19----16----16-----
---------------------------
---------------------------
---------------------------  
[ Tab from: http://www.guitartabs.cc/tabs/i/iron_maiden/can_i_play_with_madness_tab_ver_3.html ]
--------------------------------------------
--------------------------------------------
----------------12-14-14-14-12-14-12-15-15--
--7-7-5-777--14-----------------------------
--------------------------------------------
--------------------------------------------

----------------------------
----------------------------
--55-----15-17-15-17-15-----
--55--17----------------17--
--33------------------------
----------------------------

---------------------
---------------------
------33-------------
--55--33----55--17/--
--55--11----55--17/--
--33--------33-------
Comments