Iron Maiden - Can I Play With Madness Chords & Tabs

 

Can I Play With Madness Chords & Tabs

Iron Maiden Chords & Tabs

Version: 1 Type: Bass Tab 0 ratings
1 star 2 stars 3 stars 4 stars 5 stars
comments

Can I Play With Madness Bass Tab

Artista:Iron Maiden                     
Musica: Can I Play With Madness           
Tablature By: Psykotik, Jose Augusto Polete
E-mail: psykotik@hackernews.com.br          


 Afinacao(Afination):

G-|---------------------------------------------------------------------
D-|---------------------------------------------------------------------
A-|---------------------------------------------------------------------
E-|---------------------------------------------------------------------

Introducao(Intro) 
G-|--------------------------------------------------------5-4-5-4-0----
D-|---------------------------------------------------------------------
A-|-55555555555555----333333333333333-----------------------------------
E-|------------------------------------333333333333333------------------

Repetir A Intro ate o  refrao!
Repeat the intro until The  Chorus

PreChorus

G-|---------------------------------------------------------------------
D-|---------------------------------------------------------------------
A-|------5--5--5--------------------------------------------------------
E-|-------5---5--5------------------------------------------------------

Refrao(Chorus):
[ Tab from: http://www.guitartabs.cc/tabs/i/iron_maiden/can_i_play_with_madness_btab.html ]
G-|---------------------------------------------------------------------
D-|---------------------------------------------------------------------
A-|-22222222---------------5-5-5-5-0--5-4-2-0--2------------------------
E-|-----------------3333333---------------------------------------------
 "Can I Play With Madness..." 
G-|---------------------------------------------------------------------
D-|---------------------------------------------------------------------
A-|-2222222----------------5-5-5-5-0----------------2-0-0---------------
E-|------------33333333---------------------0-2-3-3---------------------

1¦ Parte do Solo De Guitarra(1¦Guitar Solo Part)
G-|---------------------------------------------------------------------
D-|------------------5~-------------------5~-7~-------------------------
A-|---7-7-7-7p5----------7-7-7-7-p5-------------------------------------
E-|-------------0h7------------------0h7--------------------------------
Repetir(Repeat)

2¦ Parte do Solo De Guitarra(2¦Guitar Solo Part)

G-|-------------------3~----------------3~-5~---------------------------
D-|----5-5-5-5-5-4---------5-5-5-5-5-4---------5~-7~--------------------
A-|----------------5-------------------5--------------------------------
E-|----------------------------------0h7--------------------------------
Repetir(Repeat)

Depois de repetir a segunda parte do solo, voltar para aprimeira parte do
solo  de guitarra

Play The solo part, then, repeat until the solo finished! 

Duvidas ou Correcoes, Me Mande um e-mail,psykotik@hackenews.com.br
Meu UIN : 72645357
Meu Nick: Psykotik
No IRC voce pode me achar na Rede Brasirc: irc.brasirc.net
Canais: #Tontos #lokos_do_cti #bauru
Espero que goste da tablatura!
Comments