Iron Maiden - Burning Ambition Chords & Tabs

 

Burning Ambition Chords & Tabs

Iron Maiden Chords & Tabs

Version: 1 Type: Bass Tab 0 ratings
1 star 2 stars 3 stars 4 stars 5 stars
comments

Burning Ambition Bass Tab

IRON MAIDEN
BURNING AMBITION

Check these out!

intro (x4):

G-----------------------------|
D------------5-------------3--|
A--5--5--5-7-----3--3--3-5----|
E-----------------------------|


G------------------------------|
D------------------------------|
A------------5------------5-7--|
E--3--3--3-5-----0-0--0--------|

Verse (x2):

G------------------------------------------------------------|
D-------------------------------------------------------3-4--|
A--5-5-5-5-5-5--0-0-0-0-0-0--3-3-3-3-3-3---------3-4-5-------|
E-----------------------------------------3-4-5--------------|

[ Tab from: http://www.guitartabs.cc/tabs/i/iron_maiden/burning_ambition_btab.html ]
G--------------------------------------------------------|
D-------------------------------------------5-5-5--3-----|
A--5-5-5-5-5-5--0-0-0-0-0-0--3-3-3-3-3-3--------------3--|
E--------------------------------------------------------|


intro

verse

(drum passage)


guitar solo (x4):

G-------------------------------------|
D--7----------------5--------4--------|
A--5-5-5-5-5-5-5-5--3-3-3-3--2-2-2-2--|
E-------------------------------------|

interlude:

G-----------------------------------------------------|
D-----------------------------------------------------|
A--5-5-5-5-5-5-5-5--0-0-0-0-0-0-0-0--3-3-3-3-3-3-3-3--|
E-----------------------------------------------------|


Bridge:

G-------------------------------------|
D-----------------------5-5-5---3-----|
A--5------0------3-----------------3--|
E-------------------------------------|


verse
Comments