Iron Maiden - Brave New World Chords & Tabs

 

Brave New World Chords & Tabs

Iron Maiden Chords & Tabs

Version: 2 Type: Tab 0 ratings
1 star 2 stars 3 stars 4 stars 5 stars
comments

Brave New World Tab

Song: Brave New World (Solo)
Artist: Iron Maiden
Album: Brave New World
Transcribed By: Sven-Arne Muchowsky
E-Mail: wrathchild_1981@hotmail.com

.  - palm mute                  /  - slide up to
\  - slide down to              ~  - vibrato
"  - tremelo picking           ( ) - ghost note
b  - bend                       h  - hammer-on
fb - full bend (1 step)         p  - pull-off
hb - half bend (1/2 step)       r  - release a bend
t  - tapping                    ah - artificial harmonic                            

                                                                         
E||--------|------|--------------------------|--------------------------|
B||--------|------|--------------------------|--------------------------|
G||--12fb--|------|--10----------10----------|--10----------10----12----|
D||--------|------|--------12----------12----|--------12----------------|
A||--------|------|--------------------------|--------------------------|
E||--------|------|--------------------------|--------------------------|


                                                      
--------------------------|--------------------------|
--------------------10----|--------------10h---11h---|
--10h---12h---13----------|--12h---13----------------|
--------------------------|--------------------------|
--------------------------|--------------------------|
--------------------------|--------------------------|


                                                      
--------------------------|--------10h---12----------|
--10----------10h---11h---|--13----------------13----|
--------13----------------|--------------------------|
--------------------------|--------------------------|
--------------------------|--------------------------|
--------------------------|--------------------------|


                                                      
--10h---12----13----13fb--|--13----12----10----------|
--------------------------|--------------------10----|
--------------------------|--------------------------|
--------------------------|--------------------------|
--------------------------|--------------------------|
--------------------------|--------------------------|

[ Tab from: http://www.guitartabs.cc/tabs/i/iron_maiden/brave_new_world_tab_ver_2.html ]
                                                                               
--10----12fb--10----------|--10----------------------|------------------------|
--------------------13----|--------13h---12h---11h---|--10/---9----10----9h---|
--------------------------|--------------------------|------------------------|
--------------------------|--------------------------|------------------------|
--------------------------|--------------------------|------------------------|
--------------------------|--------------------------|------------------------|


                                                                              
-------------------------|------------------------|--------------------------|
--10h---11h---10h---9/---|--8h---9h---10----------|--------------------------|
-------------------------|------------------12h---|--10----------10----12r---|
-------------------------|------------------------|--------12----------------|
-------------------------|------------------------|--------------------------|
-------------------------|------------------------|--------------------------|


                                                      
--------15b---15----13----|--12----13----15----15b---|
--------------------------|--------------------------|
--12~---------------------|--------------------------|
--------------------------|--------------------------|
--------------------------|--------------------------|
--------------------------|--------------------------|


                                                      
--15----13----12----------|--15b---15----13----12----|
--------------------13----|--------------------------|
--------------------------|--------------------------|
--------------------------|--------------------------|
--------------------------|--------------------------|
--------------------------|--------------------------|


                                                      
--------------------------|--15b---15----13----12----|
--13----------13/---15----|--------------------------|
--------12----------------|--------------------------|
--------------------------|--------------------------|
--------------------------|--------------------------|
--------------------------|--------------------------|


                                                      
--13----15----15b---15----|--13----12----13----15----|
--------------------------|--------------------------|
--------------------------|--------------------------|
--------------------------|--------------------------|
--------------------------|--------------------------|
--------------------------|--------------------------|


                                                 
--15b---15----13----12----|--13----15----15b---||
--------------------------|--------------------||
--------------------------|--------------------||
--------------------------|--------------------||
--------------------------|--------------------||
--------------------------|--------------------||
Comments