Iron Maiden - Brave New World Chords & Tabs

 

Brave New World Chords & Tabs

Iron Maiden Chords & Tabs

Version: 2 Type: Bass Tab 0 ratings
1 star 2 stars 3 stars 4 stars 5 stars
comments

Brave New World Bass Tab

Brave New World by Iron Maiden
Standard Tuning

Note: Intro is all Chords:
      x(12) means the note is played 12 times

G:-7--10----|----------|--7--10-5-|-3--5--7--|
D:-7--7--10-|-8--10--10|--7--7--5-|-0--5--7--|  x6
A:-5--8--10-|-5--10--10|--5--8--3-|-1--3--5--|
E:--------8-|-6--8---8-|----------|----------|

G:----------|----------|----------|----------|
D:----------|----------|----------|----------|  x2
A:---5(12)--|----------|---3(12)--|---5(12)--|
E:----------|---6(12)--|----------|----------|

G:----------|----------|----------|----------|
D:----------|----------|----------|----------|  x2
A:----------|---3(12)--|----------|---5(12)--|
E:---6(12)--|----------|---6(12)--|----------|

(Chorus)
G:----------|----------|----------|----------|
D:----------|----------|----------|----------|
A:5-----3--5|5--------5|5-----3--5|5--------5|
E:---6------|---6--3---|---6------|---6--3---|

G:----------|----------|----------|----------|
D:----------|----------|----------|----------|  x2
A:-5---5---5|----------|-3---3---3|-5---5---5|
E:----------|-6---6---6|----------|----------|
[ Tab from: http://www.guitartabs.cc/tabs/i/iron_maiden/brave_new_world_btab_ver_2.html ]
G:----------|----------|----------|----------|
D:----------|----------|----------|----------|  x2
A:----------|-3---3---3|----------|-5---5---5|
E:-6---6---6|----------|-6---6---6|----------|

G:----------|----------|----------|----------|
D:----------|----------|----------|----------|
A:5-----3--5|5--------5|5-----3--5|5--------5|
E:---6------|---6--3---|---6------|---6--3---|

G:----------|----------|----------|----------|
D:----------|----------|----------|----------|  x2
A:-5---5---5|----------|-3---3---3|-5---5---5|
E:----------|-6---6---6|----------|----------|

G:----------|----------|----------|----------|
D:----------|----------|----------|----------|  x2
A:----------|-3---3---3|----------|-5---5---5|
E:-6---6---6|----------|-6---6---6|----------|

(During Solo)
G:---------7|----------|---------7|----------|
D:---------5|---------5|---------5|----------|  x6
A:7--7--7---|3--3--3--3|5--5--5---|-7---7---7|
E:----------|----------|----------|----------|

G:----------|----------|----------|----------|
D:----------|----------|----------|----------|
A:5-----3--5|5--------5|5-----3--5|5--------5|
E:---6------|---6--3---|---6------|---6--3---|

(Outro)
G:-7--10----|----------|--7--10-5-|-3--5--7--|
D:-7--7--10-|-8--10--10|--7--7--5-|-0--5--7--|  
A:-5--8--10-|-5--10--10|--5--8--3-|-1--3--5--|
E:--------8-|-6--8---8-|----------|----------|

Thanks, please rate it after you learn it.
Tabbed by:
_TheBassist01_
Comments