Iron Maiden - Blood Brothers Chords & Tabs

 

Blood Brothers Chords & Tabs

Iron Maiden Chords & Tabs

Version: 6 Type: Tab 0 ratings
1 star 2 stars 3 stars 4 stars 5 stars
comments

Blood Brothers Tab

Subject: Iron Maiden - Blood Brothers

[Bass]

Intro/Verse: 1 & 2 & 3 & 4 &| 1 & 2 & 3 & 4 &| 1 & 2 & 3 & 4 &
          E|----------------|----------------|----------------|
          B|----------------|----------------|----------------|
          G|----------------|-----5---5-5-5-7|---7---7--------|
          D|-2---2-2-2-5---5|---5------------|----------------|
          A|----------------|----------------|----------------|
          E|----------------|----------------|----------------|

          OR

[Muted Guitar]
[ Tab from: http://www.guitartabs.cc/tabs/i/iron_maiden/blood_brothers_tab_ver_6.html ]
Intro/Verse: 1 & 2 & 3 & 4 &| 1 & 2 & 3 & 4 &| 1 & 2 & 3 & 4 &
          E|----------------|----------------|----------------|
          B|----------------|----------------|----------------|
          G|----------------|-7---7----------|----------------|
          D|-----9---9---5--|---5---------5--|-5-------7---7--|
          A|-7-----7--------|---------3-----3|-----5-----5----|
          E|----------------|----------------|----------------|

          I think the first is the Bass and the second for Guitar.
          But I'm not really sure...


Verse:     1&2&3&4&| 1&2&3&4&| 1&2&3&4&| 1&2&3&4&|
        E|---------|---------|---------|---------|
        B|---------|---------|---------|---------|
        G|-9-997-77|-5-558-88|-9-997-77|-5-558-88|
        D|-9-995-55|-5-558-88|-9-995-55|-5-558-88|
        A|-7-77----|-3-336-66|-7-77----|-3-336-66|
        E|---------|---------|---------|---------|
            ' '   ' '   ' '   ' '

           pelctron move:
up = '
down= 
Comments