Iron Maiden - Blood Brothers Chords & Tabs

 

Blood Brothers Chords & Tabs

Iron Maiden Chords & Tabs

Version: 2 Type: Tab 0 ratings
1 star 2 stars 3 stars 4 stars 5 stars
comments

Blood Brothers Tab

   
Blood Brothers

INTRO:
Repeat this 3x
E|----------------------------------------------
B|----------------------------------------------
G|----------------------------------------------
D|-----2--------5-------10-----------12---------
A|---2---2----5------10----10-----12------------
E|-0--------3------8-----------10---------------

Then
E|----------------------------------------------
B|----------------------------------------------
G|---------------------7--------5---------------
D|-----2--------5----7---7----5---5-------------
A|---2---2----5----5--------3-------------------
E|-0--------3-----------------------------------

RIFF1: X4
E|---------8---7----7--------------------------
B|---------------10----10-8-10-8-7-------------
G|-9--7-9--------------------------------------
D|---------------------------------------------
A|---------------------------------------------
E|---------------------------------------------

Verse: X2
Em,	C,	G,
[Em,	C,	G,	D] X3

Verse 2:
[Em, 	C, 	G,	D] X4

Chorus: 4x
            Em       C, G, D
(We're blood brothers)

Verse 2:
[Em,	C,	G,	D] X4

Chorus: 4x
            Em       C, G, D
(We’re blood brothers)


RIFF1: X4
E|---------8---7----7--------------------------
B|---------------10----10-8-10-8-7-------------
G|-9--7-9--------------------------------------
D|---------------------------------------------
A|---------------------------------------------
E|---------------------------------------------

Verse 2: X2
[Em,	C,	G,	D] X4

Chorus: X4
            Em       C, G, D
(We're blood brothers)

RIFF1: X4
E|---------8---7----7--------------------------
B|---------------10----10-8-10-8-7-------------
G|-9--7-9--------------------------------------
D|---------------------------------------------
A|---------------------------------------------
E|---------------------------------------------
[ Tab from: http://www.guitartabs.cc/tabs/i/iron_maiden/blood_brothers_tab_ver_2.html ]
Solo 1 (not tabbed)

RIFF3: X8
E|---7----7---8-7------------------------------
B|-----10-----------10-8-----------------------
G|-9-------------------------------------------
D|---------------------------------------------
A|---------------------------------------------
E|---------------------------------------------

RIFF4:
E|---------------------------------------------
B|---------------------------------------------
G|---------------------------------------------
D|---------------------------------------------
A|---------------------3-5-3-5-----------------
E|-5-3-0---5-3-0---5-3---------0---------------

RIFF2: X3
E|-------------------7-10---7----7----------7-|----7-10-7—-7---------
B|---7-8-7-8-10-8-10----------10----10-8-10---|-10-------10---10-8-10
G|-9------------------------------------------|----------------------
D|--------------------------------------------|----------------------
A|--------------------------------------------|----------------------
E|--------------------------------------------|----------------------

E|-------7--------------------|---------------------------
B|-8-10----10-8-10---8-7------|---7-8---7---7-------------
G|-----------------------9----|-9---------9-----9-7-9-----
D|----------------------------|-----------------------9---
A|----------------------------|---------------------------
E|----------------------------|---------------------------

E|-------------------------|------------------------------
B|---7-8---7---7-----------|---7-8---7----------7---------
G|-9---------9-----9-7-9---|-9---------9-7----9---9--------
D|-------------------------|------------------------------
A|-------------------------|------------------------------
E|-------------------------|------------------------------

SOLO 2 (not tabbed)

CHORUS x8
            Em       C, G, D
(We're blood brothers)

RIFF1: x4
E|---------8---7----7--------------------------
B|---------------10----10-8-10-8-7-------------
G|-9--7-9--------------------------------------
D|---------------------------------------------
A|---------------------------------------------
E|--------------------------------------------- 
Comments