Iron Maiden - Blood Brothers Chords & Tabs

 

Blood Brothers Chords & Tabs

Iron Maiden Chords & Tabs

Version: 12 Type: Tab 0 ratings
1 star 2 stars 3 stars 4 stars 5 stars
comments

Blood Brothers Tab

   
=====
Intro
=====


   Gtr.1 (clean)
  'Fig. 1'
 e|---------------------------------------|
 B|---------------------------------------|
 G|---------------------------------------|
 D|-----------------------5---5-----7-----|
 A|----2---2-----5-----3----3----5-----5\-|
 E|-0----0----3-----3---------------------|


 e|--------------------------------------|
 B|--------------------------------------|
 G|--------------------------------------|
 D|-----------------------5---5-----7----|
 A|----2---2-----5-----3----3----5-------|
 E|-0----0----3-----3------------------3-|


 e|---------------------------------------|
 B|---------------------------------------|
 G|---------------------------------------|
 D|-----------------------5---5-----7-----|
 A|----2---2-----5-----3----3----5-----5\-|
 E|-0----0----3-----3---------------------|


                              (end Fig. 1)
 e|--------------------------------------|
 B|--------------------------------------|
 G|--------------------------------------|
 D|-----------------------7---7-----5----|
 A|----2---2-----5-----5----5----3-------|
 E|-0----0----3-----3------------------3-|


   Gtr.1 - w/Fig. 1 (clean)
   Gtr.2 (clean)
  'Fig. 2'
 e|----------8----7----7------------------|
 B|-----------------10------10-8-10--8--7-|
 G|-9----7-9------------------------------|
 D|---------------------------------------|
 A|---------------------------------------|
 E|---------------------------------------|


 e|----------8----7----7-----------------|
 B|-----------------10------10-8-7--8--7-|
 G|-9----7-9-----------------------------|
 D|--------------------------------------|
 A|--------------------------------------|
 E|--------------------------------------|


 e|----------8----7----7------------------|
 B|-----------------10------10-8-10--8--7-|
 G|-9----7-9------------------------------|
 D|---------------------------------------|
 A|---------------------------------------|
 E|---------------------------------------|


                              (end Fig. 2)
 e|----------8----7----7-----------------|
 B|-----------------10------10-8-7--8--7-|
 G|-9----7-9-----------------------------|
 D|--------------------------------------|
 A|--------------------------------------|
 E|--------------------------------------|

=======
Verse 1
=======


   Gtr.2 - w/Fill 1 (clean)[x4]
   Gtr.1 (clean)
 e|-------------------------------------------|
 B|-------------------------------------------|
 G|-------------------------------------------|
 D|---9---9-----------------5---5-------------|
 A|-7---7---7----5---5----3---3---3---5--5--5-|
 E|------------3---3---3----------------------|


 e|---------------------------------------------|
 B|---------------------------------------------|
 G|---------------------------------------------|
 D|---9---9-----------------5---5-------7---7---|
 A|-7---7---7----5---5----3---3---3---5---5---5-|
 E|------------3---3---3------------------------|


 e|-------------------------------------------|
 B|-------------------------------------------|
 G|-------------------------------------------|
 D|---9---9-----------------5---5-------------|
 A|-7---7---7----5---5----3---3---3---5--5--5-|
 E|------------3---3---3----------------------|


 e|---------------------------------------------|
 B|---------------------------------------------|
 G|---------------------------------------------|
 D|---9---9-----------------5---5-------7---7---|
 A|-7---7---7----5---5----3---3---3---5---5---5-|
 E|------------3---3---3------------------------|

=======
Verse 2
=======


   Gtr.2 - w/Fill 1 (clean)[x4]
   Gtr.1 (dist.)
 e|------------------------------------------|
 B|------------------------------------------|
 G|------------------------------------------|
 D|----------------------5-5--5-5-5-7-7-7--7-|
 A|-2-2--2-2-2-5-5-5--5--3-3--3-3-3-5-5-5--5-|
 E|-0-0--0-0-0-3-3-3--3----------------------|
    pm......................................


 e|------------------------------------------|
 B|------------------------------------------|
 G|------------------------------------------|
 D|----------------------5-5--5-5-5-7-7-7--7-|
 A|-2-2--2-2-2-5-5-5--5--3-3--3-3-3-5-5-5--5-|
 E|-0-0--0-0-0-3-3-3--3----------------------|
    pm......................................


 e|------------------------------------------|
 B|------------------------------------------|
 G|------------------------------------------|
 D|----------------------5-5--5-5-5-7-7-7--7-|
 A|-2-2--2-2-2-5-5-5--5--3-3--3-3-3-5-5-5--5-|
 E|-0-0--0-0-0-3-3-3--3----------------------|
    pm......................................


 e|-----------------------------------|
 B|-----------------------------------|
 G|---------------------------------7-|
 D|----------------------5-5--5-5-5-7-|
 A|-2-2--2-2-2-5-5-5--5--3-3--3-3-3-5-|
 E|-0-0--0-0-0-3-3-3--3---------------|
    pm.............................

======
Chorus
======


   Gtrs.1+2 (dist.)
 e|------------|------------|------------|--------------|
 B|------------|------------|------------|--------------|
 G|----5-----7-|----5-----7-|----5-----7-|----5-----7-7-|
 D|-2--5--5--7-|-2--5--5--7-|-2--5--5--7-|-2--5--5--7-7-|
 A|-2--3--5--5-|-2--3--5--5-|-2--3--5--5-|-2--3--5--5-5-|
 E|-0-----3----|-0-----3----|-0-----3----|-0-----3------|

=======
Verse 3
=======


   Gtr.2 - w/Fill 2 (clean)[x4]
   Gtr.1 (dist.)
 e|------------------------------------------|
 B|------------------------------------------|
 G|------------------------------------------|
 D|----------------------5-5--5-5-5-7-7-7--7-|
 A|-2-2--2-2-2-5-5-5--5--3-3--3-3-3-5-5-5--5-|
 E|-0-0--0-0-0-3-3-3--3----------------------|
    pm......................................


 e|------------------------------------------|
 B|------------------------------------------|
 G|------------------------------------------|
 D|----------------------5-5--5-5-5-7-7-7--7-|
 A|-2-2--2-2-2-5-5-5--5--3-3--3-3-3-5-5-5--5-|
 E|-0-0--0-0-0-3-3-3--3----------------------|
    pm......................................


 e|------------------------------------------|
 B|------------------------------------------|
 G|------------------------------------------|
 D|----------------------5-5--5-5-5-7-7-7--7-|
 A|-2-2--2-2-2-5-5-5--5--3-3--3-3-3-5-5-5--5-|
 E|-0-0--0-0-0-3-3-3--3----------------------|
    pm......................................


 e|-----------------------------------|
 B|-----------------------------------|
 G|---------------------------------7-|
 D|----------------------5-5--5-5-5-7-|
 A|-2-2--2-2-2-5-5-5--5--3-3--3-3-3-5-|
 E|-0-0--0-0-0-3-3-3--3---------------|
    pm.............................

======
Chorus
======


   Gtrs.1+2 (dist.)
 e|------------|------------|------------|--------------|
 B|------------|------------|------------|--------------|
 G|----5-----7-|----5-----7-|----5-----7-|----5-----7-7-|
 D|-2--5--5--7-|-2--5--5--7-|-2--5--5--7-|-2--5--5--7-7-|
 A|-2--3--5--5-|-2--3--5--5-|-2--3--5--5-|-2--3--5--5-5-|
 E|-0-----3----|-0-----3----|-0-----3----|-0-----3------|


   Gtr.2 - w/Fig. 2 (dist.)
   Gtr.1 (clean)
  'Fig. 3'
 e|----------------------------------------|
 B|----------------------------------------|
 G|----------------------------------------|
 D|----------------------------------------|
 A|-----------5--------10--10------12------|
 E|-0------3-----3-/8----------10------10\-|


 e|-----------------------------------|
 B|-----------------------------------|
 G|-----------------------------------|
 D|--------------------5---5-----7----|
 A|-----------5-----3----3----5-------|
 E|-0------3-----3------------------3-|


 e|-------------------------------------------|
 B|-------------------------------------------|
 G|-------------------------------------------|
 D|-------------------------------------------|
 A|----2---2-----5--------10---10------12-----|
 E|-0----0----3-----3--8-----8-----10------10-|


                               (end Fig.3)
 e|--------------------------------------|
 B|--------------------------------------|
 G|--------------------------------------|
 D|-----------------------7---7-----5----|
 A|----2---2-----5-----5----5----3-------|
 E|-0----0----3-----3------------------3-|

=======
Verse 4
=======


   Gtr.2 - w/Fill 3 (clean)[x2]
   Gtr.1 (dist.)
 e|---------------------------------------------|
 B|---------------------------------------------|
 G|---------------------------------------------|
 D|-----------------------5-5--5-5-5-7-7--7-7-7-|
 A|-2-2--2-2-2-5-5--5-5-5-3-3--3-3-3-5-5--5-5-5-|
 E|-0-0--0-0-0-3-3--3-3-3-----------------------|
    pm.........................................


 e|-------------------------------------|
 B|-------------------------------------|
 G|-----------------------------------7-|
 D|------------------------7-7--7-7-7-7-|
 A|-2-2--2-2-2-5-5--5-5-5--5-5--5-5-5-5-|
 E|-0-0--0-0-0-3-3--3-3-3---------------|
    pm........................


 e|---------------------------------------------|
 B|---------------------------------------------|
 G|---------------------------------------------|
 D|-----------------------5-5--5-5-5-7-7--7-7-7-|
 A|-2-2--2-2-2-5-5--5-5-5-3-3--3-3-3-5-5--5-5-5-|
 E|-0-0--0-0-0-3-3--3-3-3-----------------------|
    pm.........................................


 e|-------------------------------------|
 B|-------------------------------------|
 G|-----------------------------------7-|
 D|------------------------7-7--7-7-7-7-|
 A|-2-2--2-2-2-5-5--5-5-5--5-5--5-5-5-5-|
 E|-0-0--0-0-0-3-3--3-3-3---------------|
    pm........................

=======
Verse 5
=======


   Gtr.2 - w/Fill 3 (clean)[x2]
   Gtr.1 (dist.)
 e|---------------------------------------------|
 B|---------------------------------------------|
 G|---------------------------------------------|
 D|-----------------------5-5--5-5-5-7-7--7-7-7-|
 A|-2-2--2-2-2-5-5--5-5-5-3-3--3-3-3-5-5--5-5-5-|
 E|-0-0--0-0-0-3-3--3-3-3-----------------------|
    pm.........................................


 e|-------------------------------------|
 B|-------------------------------------|
 G|-----------------------------------7-|
 D|------------------------7-7--7-7-7-7-|
 A|-2-2--2-2-2-5-5--5-5-5--5-5--5-5-5-5-|
 E|-0-0--0-0-0-3-3--3-3-3---------------|
    pm........................


 e|---------------------------------------------|
 B|---------------------------------------------|
 G|---------------------------------------------|
 D|-----------------------5-5--5-5-5-7-7--7-7-7-|
 A|-2-2--2-2-2-5-5--5-5-5-3-3--3-3-3-5-5--5-5-5-|
 E|-0-0--0-0-0-3-3--3-3-3-----------------------|
    pm.........................................


 e|-------------------------------------------|
 B|-------------------------------------------|
 G|------------------------7-7--7-7-7-7--7--7-|
 D|------------------------7-7--7-7-7-7--7--7-|
 A|-2-2--2-2-2-5-5--5-5-5--5-5--5-5-5-5--5--5-|
 E|-0-0--0-0-0-3-3--3-3-3---------------------|
    pm...................

======
Chorus
======


   Gtrs.1+2 (dist.)
 e|------------|------------|------------|--------------|
 B|------------|------------|------------|--------------|
 G|----5-----7-|----5-----7-|----5-----7-|----5-----7-7-|
 D|-2--5--5--7-|-2--5--5--7-|-2--5--5--7-|-2--5--5--7-7-|
 A|-2--3--5--5-|-2--3--5--5-|-2--3--5--5-|-2--3--5--5-5-|
 E|-0-----3----|-0-----3----|-0-----3----|-0-----3------|


   Gtr.1 - w/Fig. 2 (dist.)
   Gtr.3 (dist.)
 e|-------------15------15------15----15------17-----|
 B|----12---12------15------13-----13-----15------15-|
 G|-9-----9------------------------------------------|
 D|--------------------------------------------------|
 A|--------------------------------------------------|
 E|--------------------------------------------------|


 e|-------------15------15------15----15------17-----|
 B|----12---12------15------13-----13-----15------15-|
 G|-9-----9------------------------------------------|
 D|--------------------------------------------------|
 A|--------------------------------------------------|
 E|--------------------------------------------------|

 e|-------------15------15------15----15------17-----|
 B|----12---12------15------13-----13-----15------15-|
 G|-9-----9------------------------------------------|
 D|--------------------------------------------------|
 A|--------------------------------------------------|
 E|--------------------------------------------------|


 e|-------------15------15------------------------|
 B|----12---12------15------------------13\----12-|
 G|-9-----9---------------------14----------------|
 D|-------------------------12------12------------|
 A|-----------------------------------------------|
 E|-----------------------------------------------|

=============
GUITAR SOLO 1
=============


   Gtrs.1+2 w/Fill 4 (dist.)[x4]
   Gtr.3 (dist.)
                            F                  F
 e|-------------------12------------12-14-15-15b-|
 B|-12----10s12h14h15-----15bv-------------------|
 G|----------------------------------------------|
 D|----------------------------------------------|
 A|----------------------------------------------|
 E|----------------------------------------------|


                                 F
 e|-15-14-12-14-12h14p12----15---------------------------|
 B|----------------------15----15b--r(15)p13h15p13p12h13-|
 G|------------------------------------------------------|
 D|------------------------------------------------------|
 A|------------------------------------------------------|
 E|------------------------------------------------------|


 e|--------------------------------------------------------|
 B|--------15v----(12)-(15)p12-----------------------------|
 G|-14--12---------------------14-12h14p12-----------------|
 D|----------------------------------------14p12h14--12s14-|
 A|--------------------------------------------------------|
 E|--------------------------------------------------------|
                  w/bar....


            F         F
 e|------------------------------------------------------|
 B|---------------------12-12h15p12-12-12----------------|
 G|-12-14-14b-r(14)-14b-------------------15-14p12----12-|
 D|------------------------------------------------14----|
 A|------------------------------------------------------|
 E|------------------------------------------------------|


      H
 e|--------------------------------------------------|
 B|--------------------------------------------------|
 G|-14b-r(14)p12----12v---------------------11-12-14-|
 D|--------------14----------------11-12-14----------|
 A|--------------------------12-14-------------------|
 E|--------------------------------------------------|
                             pm.........


                                    F
 e|----------------------12-14-15-15b\-------|
 B|-12h13p12----12-13-15---------------------|
 G|----------14------------------------------|
 D|------------------------------------------|
 A|------------------------------------------|
 E|------------------------------------------|

=========
Interlude
=========


   Gtr.1 (dist.)
 e|------------------------------------------------|
 B|----12--10--12v-----------------13--12---10-----|
 G|-9------------------------------------------12--|
 D|------------------------------------------------|
 A|------------------------------------------------|
 E|------------------------------------------------|
 -|
 -|Gtr.3 (dist.)
 e|------------------------------------------------|
 B|------------------------------------------------|
 G|-----4---2---4v-------------------5--4----2-----|
 D|-2-------------------------------------------5--|
 A|------------------------------------------------|
 E|------------------------------------------------|
 -|
 -|Gtr.2 (dist.)
 e|------------------------------------------------|
 B|------------------------------------------------|
 G|------------------------------------------------|
 D|-2-----------2-----------2-----------5----------|
 A|-2-----------2-----------2-----------5----------|
 E|-0-----------0-----------0-----------3----------|

 e|------------------------------------------------|
 B|----12--10--12v-----------------13--12---10-----|
 G|-9------------------------------------------12--|
 D|------------------------------------------------|
 A|------------------------------------------------|
 E|------------------------------------------------|
 -|
 e|------------------------------------------------|
 B|------------------------------------------------|
 G|-----4---2---4v-------------------5--4----2-----|
 D|-2-------------------------------------------5--|
 A|------------------------------------------------|
 E|------------------------------------------------|
 -|
 e|------------------------------------------------|
 B|------------------------------------------------|
 G|-5-----------5-----------7-----------7----------|
 D|-5-----------5-----------7-----------7----------|
 A|-3-----------3-----------5-----------5----------|
 E|------------------------------------------------|

 e|------------------------------------------------|
 B|----12--10--12v-----------------13--12---10-----|
 G|-9------------------------------------------12--|
 D|------------------------------------------------|
 A|------------------------------------------------|
 E|------------------------------------------------|
 -|
 e|------------------------------------------------|
 B|------------------------------------------------|
 G|-----4---2---4v-------------------5--4----2-----|
 D|-2-------------------------------------------5--|
 A|------------------------------------------------|
 E|------------------------------------------------|
 -|
 e|------------------------------------------------|
 B|------------------------------------------------|
 G|------------------------------------------------|
 D|-2-----------2-----------2-----------5----------|
 A|-2-----------2-----------2-----------5----------|
 E|-0-----------0-----------0-----------3----------|

 e|------------------------------------------------|
 B|----12--10--12v-----------------13--12---10-----|
 G|-9------------------------------------------12--|
 D|------------------------------------------------|
 A|------------------------------------------------|
 E|------------------------------------------------|
 -|
 e|------------------------------------------------|
 B|------------------------------------------------|
 G|-----4---2---4v-------------------5--4----2-----|
 D|-2-------------------------------------------5--|
 A|------------------------------------------------|
 E|------------------------------------------------|
 -|
 e|------------------------------------------------|
 B|------------------------------------------------|
 G|-5-----------5-----------------------7----------|
 D|-5-----------5-----------7-----------7----------|
 A|-3-----------3-----------7-----------5----------|
 E|-------------------------5----------------------|

 e|------------------------------------------------|
 B|----12--10--12v-----------------13--12---10-----|
 G|-9------------------------------------------12--|
 D|------------------------------------------------|
 A|------------------------------------------------|
 E|------------------------------------------------|
 -|
 e|------------------------------------------------|
 B|------------------------------------------------|
 G|-----4---2---4v-------------------5--4----2-----|
 D|-2-------------------------------------------5--|
 A|------------------------------------------------|
 E|------------------------------------------------|
 -|
 e|------------------------------------------------|
 B|------------------------------------------------|
 G|------------------------------------------------|
 D|-2-----------2-----------2-----------5----------|
 A|-2-----------2-----------2-----------5----------|
 E|-0-----------0-----------0-----------3----------|
[ Tab from: http://www.guitartabs.cc/tabs/i/iron_maiden/blood_brothers_tab_ver_12.html ]
 e|------------------------------------------------|
 B|----12--10--12v-----------------13--12---10-----|
 G|-9------------------------------------------12--|
 D|------------------------------------------------|
 A|------------------------------------------------|
 E|------------------------------------------------|
 -|
 e|------------------------------------------------|
 B|------------------------------------------------|
 G|-----4---2---4v-------------------5--4----2-----|
 D|-2-------------------------------------------5--|
 A|------------------------------------------------|
 E|------------------------------------------------|
 -|
 e|------------------------------------------------|
 B|------------------------------------------------|
 G|-5-----------5-----------7-----------7----------|
 D|-5-----------5-----------7-----------7----------|
 A|-3-----------3-----------5-----------5----------|
 E|------------------------------------------------|

 e|------------------------------------------------|
 B|----12--10--12v-----------------13--12---10-----|
 G|-9------------------------------------------12--|
 D|------------------------------------------------|
 A|------------------------------------------------|
 E|------------------------------------------------|
 -|
 e|------------------------------------------------|
 B|------------------------------------------------|
 G|-----4---2---4v-------------------5--4----2-----|
 D|-2-------------------------------------------5--|
 A|------------------------------------------------|
 E|------------------------------------------------|
 -|
 e|------------------------------------------------|
 B|------------------------------------------------|
 G|------------------------------------------------|
 D|-2-----------2-----------2-----------5----------|
 A|-2-----------2-----------2-----------5----------|
 E|-0-----------0-----------0-----------3----------|

 e|------------------------------------------------|
 B|----12--10--12v-----------------13--12---10-----|
 G|-9------------------------------------------12--|
 D|------------------------------------------------|
 A|------------------------------------------------|
 E|------------------------------------------------|
 -|
 e|------------------------------------------------|
 B|------------------------------------------------|
 G|-----4---2---4v-------------------5--4----2-----|
 D|-2-------------------------------------------5--|
 A|------------------------------------------------|
 E|------------------------------------------------|
 -|
 e|------------------------------------------------|
 B|------------------------------------------------|
 G|-5-----------5-----------------------7----------|
 D|-5-----------5-----------7-----------7----------|
 A|-3-----------3-----------7-----------5----------|
 E|-------------------------5----------------------|

 e|-------------------------------------|
 B|-------------------------------------|
 G|-9\----------------------------------|
 D|-------------------------------------|
 A|-------------------------------------|
 E|-------------------------------------|
 -|
 e|-------------------------------------|
 B|-------------------------------------|
 G|-------------------------------------|
 D|-2-----------------------------------|
 A|-------------------------------------|
 E|-------------------------------------|
 -|
 -|(clean)
 e|-------------------------------------|
 B|-------------------------------------|
 G|-------------------------------------|
 D|----2--2-----2--2-----2--2-----2--2--|
 A|-------------------------------------|
 E|-------------------------------------|


   Gtr.1 (clean)
 e|--------------------------------------------------|
 B|-----------------------------10---10---8---8---8--|
 G|-----9---9-------9---9---9-9----9----9---9---9----|
 D|-9-9---9---9-9-9---9---9--------------------------|
 A|--------------------------------------------------|
 E|--------------------------------------------------|
 -| pm..............................................
 -|
 -|Gtr.3 (clean)
 e|--------------------------------------------------|
 B|--------------------------------------------------|
 G|--------------------------------------------------|
 D|-------------------------7----7----7--5---5---5---|
 A|-----7---7-------7---7----------------------------|
 E|-7-----7-----7-----7------------------------------|

 e|--------------------------------------------------|
 B|-----------------------------10---10---8---8---8--|
 G|-----9---9-------9---9---9-9----9----9---9---9----|
 D|-9-9---9---9-9-9---9---9--------------------------|
 A|--------------------------------------------------|
 E|--------------------------------------------------|
 -| pm..............................................
 -|
 -|
 e|--------------------------------------------------|
 B|--------------------------------------------------|
 G|--------------------------------------------------|
 D|-------------------------7----7----7--5---5---5---|
 A|-----7---7-------7---7----------------------------|
 E|-7-----7-----7-----7------------------------------|

 e|--------------------------------------------------|
 B|-----------------------------10---10---8---8---8--|
 G|-----9---9-------9---9---9-9----9----9---9---9----|
 D|-9-9---9---9-9-9---9---9--------------------------|
 A|--------------------------------------------------|
 E|--------------------------------------------------|
 -| pm..............................................
 -|
 -|
 e|--------------------------------------------------|
 B|--------------------------------------------------|
 G|--------------------------------------------------|
 D|-------------------------7----7----7---5---5---5--|
 A|-----7---7-------7---7----------------------------|
 E|-7-----7-----7-----7------------------------------|

 e|-----------------------------------------------|
 B|-----------------------------------------------|
 G|-5---5---5---7---7---7---5---5---5---7---7---7-|
 D|---5---5---5---7---7-------5---5---5---7---7---|
 A|-----------------------------------------------|
 E|-----------------------------------------------|
 -| pm...........................................
 -|
 -|
 e|-----------------------------------------------|
 B|-----------------------------------------------|
 G|-----------------------------------------------|
 D|-----------------------------------------------|
 A|-3---3---3---5---5---5---3---3---3---5---5---5-|
 E|-----------------------------------------------|

 e|-------------------------------------------------|
 B|-------------------------------------------------|
 G|-----9---9-------9---9-------9---9-------9---9---|
 D|-9-9---9---9-9-9---9---9-9-9---9---9-9-9---9---9-|
 A|-------------------------------------------------|
 E|-------------------------------------------------|
 -| pm.............................................
 -|
 -|
 e|-------------------------------------------------|
 B|-------------------------------------------------|
 G|-------------------------------------------------|
 D|-----5---5-------5---5-------5---5-------5---5---|
 A|-------------------------------------------------|
 E|-------------------------------------------------|

======
Middle
======


   Gtr.1 - w/Fill 5 (dist.)[x3]
   Gtr.2 (dist.)
                                                      F
 e|--------------7------7--10---7-----7-----------------|
 B|---7-8-7-8-10----10------------10------10-8--10--10b-|
 G|-9---------------------------------------------------|
 D|-----------------------------------------------------|
 A|-----------------------------------------------------|
 E|-----------------------------------------------------|


                                                   F
 e|-------7--10---7-----7----------------------------|
 B|---10------------10------10-8--10------8--10--10b-|
 G|--------------------------------------------------|
 D|--------------------------------------------------|
 A|--------------------------------------------------|
 E|--------------------------------------------------|


 e|------------------------------------------------|
 B|--10-8--10---8-7------------7--8---7----7-------|
 G|------------------9------9-----------9------9-7-|
 D|------------------------------------------------|
 A|------------------------------------------------|
 E|------------------------------------------------|


 e|----------------------------------------------------|
 B|---------------7--8---7----7-------------------7--8-|
 G|-9--\4------9-----------9------9--7--9------9-------|
 D|----------------------------------------------------|
 A|----------------------------------------------------|
 E|----------------------------------------------------|


 e|------------------------------|
 B|-7---------7------------------|
 G|---9--7--9----9---------------|
 D|------------------------------|
 A|------------------------------|
 E|------------------------------|


 e|--------------7------7--10---7-----7-----------------|
 B|---7-8-7-8-10----10------------10------10-8--10--10b-|
 G|-9---------------------------------------------------|
 D|-----------------------------------------------------|
 A|-----------------------------------------------------|
 E|-----------------------------------------------------|


                                                   F
 e|-------7--10---7-----7----------------------------|
 B|---10------------10------10-8--10------8--10--10b-|
 G|--------------------------------------------------|
 D|--------------------------------------------------|
 A|--------------------------------------------------|
 E|--------------------------------------------------|


 e|------------------------------------------------|
 B|--10-8--10---8-7------------7--8---7----7-------|
 G|------------------9------9-----------9------9-7-|
 D|------------------------------------------------|
 A|------------------------------------------------|
 E|------------------------------------------------|


 e|----------------------------------------------------|
 B|---------------7--8---7----7-------------------7--8-|
 G|-9--\4------9-----------9------9--7--9------9-------|
 D|----------------------------------------------------|
 A|----------------------------------------------------|
 E|----------------------------------------------------|


 e|------------------------------|
 B|-7---------7------------------|
 G|---9--7--9----9---------------|
 D|------------------------------|
 A|------------------------------|
 E|------------------------------|


 e|--------------7------7--10---7-----7-----------------|
 B|---7-8-7-8-10----10------------10------10-8--10--10b-|
 G|-9---------------------------------------------------|
 D|-----------------------------------------------------|
 A|-----------------------------------------------------|
 E|-----------------------------------------------------|


                                                   F
 e|-------7--10---7-----7----------------------------|
 B|---10------------10------10-8--10------8--10--10b-|
 G|--------------------------------------------------|
 D|--------------------------------------------------|
 A|--------------------------------------------------|
 E|--------------------------------------------------|


 e|------------------------------------------------|
 B|--10-8--10---8-7------------7--8---7----7-------|
 G|------------------9------9-----------9------9-7-|
 D|------------------------------------------------|
 A|------------------------------------------------|
 E|------------------------------------------------|


 e|----------------------------------------------------|
 B|---------------7--8---7----7-------------------7--8-|
 G|-9--\4------9-----------9------9--7--9------9-------|
 D|----------------------------------------------------|
 A|----------------------------------------------------|
 E|----------------------------------------------------|


                           F       F
 e|--------------------------------------------|
 B|-7---------7----------15b-----15bv----r(15)-|
 G|---9--7--9----9-----------------------------|
 D|--------------------------------------------|
 A|--------------------------------------------|
 E|--------------------------------------------|

=============
GUITAR SOLO 2
=============


   Gtr.1 - w/Fill 5 (dist.)
   Gtr.2 (dist.)
              F            H
 e|--------------12--14--14b---14-12-------12-14--12-----|
 B|-15b-----15b-----------------------15-----------------|
 G|------------------------------------------------------|
 D|------------------------------------------------------|
 A|------------------------------------------------------|
 E|------------------------------------------------------|


      F       F
 e|-17b-----17b---17-15--14---15-14------------12--14--|
 B|----------------------------------15v---------------|
 G|----------------------------------------------------|
 D|----------------------------------------------------|
 A|----------------------------------------------------|
 E|----------------------------------------------------|


      H                               F
 e|-14b---14-12-------12-14--12----------12-------------|
 B|--------------15-----------------15b-----15-12----12-|
 G|-----------------------------------------------15----|
 D|-----------------------------------------------------|
 A|-----------------------------------------------------|
 E|-----------------------------------------------------|


                     F       F
 e|---------------------------------------------|
 B|----------------15b--r(15)b--v---^----(15)\--|
 G|-15-14-12----12------------------------------|
 D|----------14---------------------------------|
 A|---------------------------------------------|
 E|---------------------------------------------|


      F
 e|-17b----^--^-r-15p14-15p14-15p14----14-15-17-15p14-|
 B|---------------------------------15----------------|
 G|---------------------------------------------------|
 D|---------------------------------------------------|
 A|---------------------------------------------------|
 E|---------------------------------------------------|


                        F
 e|----14-15p14----14-17b--17-15-14h15-14----14-----------|
 B|-15----------15------------------------15-----17v------|
 G|-------------------------------------------------------|
 D|-------------------------------------------------------|
 A|-------------------------------------------------------|
 E|-------------------------------------------------------|


      F
 e|-----------------------    |-------------|
 B|-15b-----r-12----------    |-------------|
 G|--------------15p14p12-    |----------12-|
 D|-----------------------    |-14-12-14----|
 A|-----------------------    |-------------|
 E|-----------------------    |-------------|
                              *Overlap into chorus


======
Chorus
======


   Gtrs.1+3 (dist.)
 e|------------|------------|------------|--------------|
 B|------------|------------|------------|--------------|
 G|----5-----7-|----5-----7-|----5-----7-|----5-----7-7-|
 D|-2--5--5--7-|-2--5--5--7-|-2--5--5--7-|-2--5--5--7-7-|
 A|-2--3--5--5-|-2--3--5--5-|-2--3--5--5-|-2--3--5--5-5-|
 E|-0-----3----|-0-----3----|-0-----3----|-0-----3------|


 e|------------|------------|------------|--------------|
 B|------------|------------|------------|--------------|
 G|----5-----7-|----5-----7-|----5-----7-|----5-----7-7-|
 D|-2--5--5--7-|-2--5--5--7-|-2--5--5--7-|-2--5--5--7-7-|
 A|-2--3--5--5-|-2--3--5--5-|-2--3--5--5-|-2--3--5--5-5-|
 E|-0-----3----|-0-----3----|-0-----3----|-0-----3------|

=====
Outro
=====


   Gtr.1 - w/Fig. 3 (clean)
   Gtr.2 (clean)
 e|----------8----7----7------------------|
 B|-----------------10------10-8-10--8--7-|
 G|-9----7-9------------------------------|
 D|---------------------------------------|
 A|---------------------------------------|
 E|---------------------------------------|


 e|----------8----7----7-----------------|
 B|-----------------10------10-8-7--8--7-|
 G|-9----7-9-----------------------------|
 D|--------------------------------------|
 A|--------------------------------------|
 E|--------------------------------------|


 e|----------8----7----7------------------|
 B|-----------------10------10-8-10--8--7-|
 G|-9----7-9------------------------------|
 D|---------------------------------------|
 A|---------------------------------------|
 E|---------------------------------------|


                                          w/Fill 6 (clean)
 e|----------8----7----7-----------------|-----------------|]
 B|-----------------10------10-8-7--8--7-|-----------------|]
 G|-9----7-9-----------------------------|-7s9-------------|]
 D|--------------------------------------|-----------------|]
 A|--------------------------------------|-----------------|]
 E|--------------------------------------|-----------------|]
   rit.....................................................

 Fill 1
 ~~~~~~

 e|---------------------------------------------------|
 B|---12---12----15--15--15------------------10-------|
 G|-9----9----9--12--12--12-----12----12---------9--7-|
 D|--------------------------10----10----10-----------|
 A|---------------------------------------------------|
 E|---------------------------------------------------|

 Fill 2
 ~~~~~~

 e|--------------------------------------------------|
 B|-12-12--12---15-15-15-15-15-15-8-8--8---8-8-8-8-8-|
 G|--9--9---9---12-12-12-12-12-12-7-7--7---7-7-7-7-7-|
 D|--9--9---9---12-12-12-12-12-12-5-5--5---5-5-5-5-5-|
 A|--------------------------------------------------|
 E|--------------------------------------------------|


 Fill 3
 ~~~~~~

 e|----------------------------------------------------|
 B|-12-12--12-12--15-15--15-15--8-8--8-8--10-10--10-10-|
 G|--9--9---9--9--12-12--12-12--5-5--5-5---7--7---7--7-|
 D|--9--9---9--9--12-12--12-12--5-5--5-5---7--7---7--7-|
 A|----------------------------------------------------|
 E|----------------------------------------------------|


 e|------------------------------------------------|
 B|-12-12--12-12--15-15--15-15--8-8--8-8-8-8--8--8-|
 G|--9--9---9--9--12-12--12-12--5-5--5-5-5-5--5--5-|
 D|--9--9---9--9--12-12--12-12--5-5--5-5-5-5--5--5-|
 A|------------------------------------------------|
 E|------------------------------------------------|

 Fill 4
 ~~~~~~

 e|-------------------------------------------|
 B|-------------------------------------------|
 G|----------------------5-5--5--5-7-7-7--7-7-|
 D|-2-2--2--2-5-5-5-5-5--5-5--5--5-7-7-7--7-7-|
 A|-2-2--2--2-5-5-5-5-5--3-3--3--3-5-5-5--5-5-|
 E|-0-0--0--0-3-3-3-3-3-----------------------|


 Fill 5
 ~~~~~~

 e|--------------------------------------|
 B|--------------------------------------|
 G|--------------------5--5-5-5----------|
 D|-2--2-2-2--2--2--2--5--5-5-5--7--7--7-|
 A|-2--2-2-2--2--2--2--3--3-3-3--7--7--7-|
 E|-0--0-0-0--0--0--0------------5--5--5-|

 e|--------------------------------------|
 B|--------------------------------------|
 G|--------------------5--5-5-5----------|
 D|-2--2-2-2--2--2--2--5--5-5-5--7--7--7-|
 A|-2--2-2-2--2--2--2--3--3-3-3--7--7--7-|
 E|-0--0-0-0--0--0--0------------5--5--5-|

 e|--------------------------------------|
 B|--------------------------------------|
 G|-7--7-7-7--7--7--7--5--5-5-5--7--7--7-|
 D|-7--7-7-7--7--7--7--5--5-5-5--7--7--7-|
 A|-5--5-5-5--5--5--5--3--3-3-3--5--5--5-|
 E|--------------------------------------|

 e|--------------------------------------|
 B|--------------------------------------|
 G|--------------------5--5-5-5----------|
 D|-2--2-2-2--2--2--2--5--5-5-5--7--7--7-|
 A|-2--2-2-2--2--2--2--3--3-3-3--7--7--7-|
 E|-0--0-0-0--0--0--0------------5--5--5-|

 e|--------------------------------------|
 B|--------------------------------------|
 G|--------------------5--5-5-5----------|
 D|-2--2-2-2--2--2--2--5--5-5-5--7--7--7-|
 A|-2--2-2-2--2--2--2--3--3-3-3--7--7--7-|
 E|-0--0-0-0--0--0--0------------5--5--5-|

 e|--------------------------------------|
 B|--------------------------------------|
 G|-7--7-7-7--7--7--7--5--5-5-5----------|
 D|-7--7-7-7--7--7--7--5--5-5-5--7--7--7-|
 A|-5--5-5-5--5--5--5--3--3-3-3--7--7--7-|
 E|------------------------------5--5--5-|

 e|--------------------------------------|
 B|--------------------------------------|
 G|--------------------------------------|
 D|-2--2-2-2--2--2--2--2--2-2-2--2--2--2-|
 A|-2--2-2-2--2--2--2--2--2-2-2--2--2--2-|
 E|-0--0-0-0--0--0--0--0--0-0-0--0--0--0-|

 Fill 6
 ~~~~~~

 e|-10----------|
 B|--8-------7--|
 G|--7-----7----|
 D|--9----------|
 A|--7----------|
 E|-------------|

Thanks to Maiden-World.com
Comments