Iron Maiden - Blood Brothers (riff) Chords & Tabs

 

Blood Brothers (riff) Chords & Tabs

Iron Maiden Chords & Tabs

Version: 1 Type: Tab 0 ratings
1 star 2 stars 3 stars 4 stars 5 stars
comments

Blood Brothers (riff) Tab

#----------------------------------PLEASE NOTE----------------------------------#
# This file is the author's own work and represents their interpretation of the #
# song. You may only use this file for private study, scholarship, or research. #
#-------------------------------------------------------------------------------#


Subject: Iron Maiden - Blood Brothers
Tabbed By: Alexander Spennemann
If You Have Comments Please Write Me

INTRO:
repeat this 3x
e|----------------------------------------------
B|----------------------------------------------
G|----------------------------------------------
D|-----2--------5-------10-----------12---------
A|---2---2----5------10----10-----12------------
E|-0--------3------8-----------10---------------

and then
e|----------------------------------------------
B|----------------------------------------------
G|---------------------7--------5---------------
D|-----2--------5----7---7----5---5-------------
A|---2---2----5----5--------3-------------------
E|-0--------3-----------------------------------

You need to listen to the song to get the rhythm of the riffs above

RIFF1:
e|---------8---7----7--------------------------
B|---------------10----10-8-10-8-7-------------
G|-9--7-9--------------------------------------
D|---------------------------------------------
A|---------------------------------------------
E|---------------------------------------------

RIFF2:
e|-------------------7-10---7----7-----------7-
B|---7-8-7-8-10-8-10----------10-----10-8-10---
G|-9-------------------------------------------
D|---------------------------------------------
A|---------------------------------------------
E|---------------------------------------------
[ Tab from: http://www.guitartabs.cc/tabs/i/iron_maiden/blood_brothers_riff_tab.html ]
e|----7-10---7----7----------------------------
B|-10----------10-----10-8-10------------------
G|---------------------------------------------
D|---------------------------------------------
A|---------------------------------------------
E|---------------------------------------------

e|------7--------------------------------------
B|-8-10-----10-8-10---8-7----------------------
G|------------------------9--------------------
D|---------------------------------------------
A|---------------------------------------------
E|---------------------------------------------

e|---------------------------------------------
B|---7-8---7---7-------------------------------
G|-9---------9-----9-7-9-----------------------
D|-----------------------9---------------------
A|---------------------------------------------
E|---------------------------------------------

e|---------------------------------------------
B|---7-8---7---7-------------------------------
G|-9---------9-----9-7-9-----------------------
D|---------------------------------------------
A|---------------------------------------------
E|---------------------------------------------

e|---------------------------------------------
B|---7-8---7---------7-------------------------
G|-9---------9-7---9---9-----------------------
D|---------------------------------------------
A|---------------------------------------------
E|---------------------------------------------

RIFF3:
e|---7----7---8-7------------------------------
B|-----10-----------10-8-----------------------
G|-9-------------------------------------------
D|---------------------------------------------
A|---------------------------------------------
E|---------------------------------------------

RIFF4:
e|---------------------------------------------
B|---------------------------------------------
G|---------------------------------------------
D|---------------------------------------------
A|---------------------3-5-3-5-----------------
E|-5-3-0---5-3-0---5-3---------0---------------
Comments