Iron Maiden - Be Quick Or Be Dead Chords & Tabs

 

Be Quick Or Be Dead Chords & Tabs

Iron Maiden Chords & Tabs

Version: 3 Type: Tab 0 ratings
1 star 2 stars 3 stars 4 stars 5 stars
comments

Be Quick Or Be Dead Tab

   
!!! Yugoslavia !!!BE QUICK OR BE DEAD

Transcription by MARKO ALEKSIC
                        
Intro X4
   
e:------------------------------|------------------------------|
B:------------------------------|------------------------------|
G:------------------------------|------------------------------|
D:-----5-0-0-0-1-0-3p0-1p0-0----|-----5-0-0-0-1-0-3p0-1p0------|
A:------------------------------|-------------------------3----|
E:-3-3--------------------------|-3-3--------------------------|
  
Verse X2
e:--------------------------|--------------------------|
B:--------------------------|--------------------------|
G:--------------------------|--------------------------|
D:--------------------7--8--|--------------3--5--8--7--|
A:-5-5-5-5-5-5-5-5-5--5--6--|-5-5-5-5-5-5--1--3--6--5--|
E:-3-3-3-3-3-3-3-3-3--------|-3-3-3-3-3-3--------------|
   pm...............          pm.........

Bridge x2
e:-------------------------------|-------------------------------|
B:-------------------------------|-------------------------------|
G:-------------------------------|-------------------------------|
D:--5-5-5-5--5-5--3--3-3---------|--5-5-5-5--5-5--3--3-3--8--7-8-|
A:--3-3-3-3--3-3--1--1-1--3--3-3-|--3-3-3-3--3-3--1--1-1--6--5-6-|
E:------------------------1--1-1-|-------------------------------|

Chorus x4
e:-------------------------------------|
B:-------------------------------------|
G:-------------------------------------|
D:---7-5-0---5-3-----3-1------1-1p0----|
A:---------------5-------3----------1--|
E:-3-------3-------3--------3----------|
[ Tab from: http://www.guitartabs.cc/tabs/i/iron_maiden/be_quick_or_be_dead_tab_ver_3.html ]
Post-Chorus A X4
e:----------------------------------|
B:----------------------------------|
G:----------------------------------|
D:----------------------------------|
A:-3----------------5---------------|
E:-1----------------3---------------|

Post-Chorus B
e:-------------------------------------|----------------------------|
B:-------------------------------------|----------------------------|
G:-------------------------------------|----------------------------|
D:--3----5----3--------3----5----3---7-|--------------------8--10---|
A:--1-3--3-5--1-3-5----1-3--3-5--1-3-5-|--------------------6---8---|
E:----1----3----1-3------1----3----1---|----------------------------|

Then:

INTRO X4
VERSE X2
BRIDGE X2
CHORUS X4
POST-CHORUS A X4
POST CHORUS B

SOLO:I'm still not good enough to TAB solos. This is my first tab ever.

OUTRO Same as CHORUS X2

LYRICS:
-------
Covered in sinners and dripping with gilt
Making you money from slime and from filth
Parading your bellies in ivory towers
Investing our lives in your schemes and your powers

You got to watch them - Be quick or be dead
Snake eyes in heaven - The thief in your head
You've got to watch them - Be quick or be dead
Snake eyes in heaven - The thief in your head...
Be quick... Or be dead! Be quick... Or be dead

See... what's ruling all our lives
See... who's pulling the strings...
I bet you won't fall on your face...
Your belly will hold you in place

The serpent is crawling inside of your ear
He says you must vote for what you want to hear
Don't matter what's wrong as long as you're alright
So pull yourself stupid and rob yourself blind




That's all. This is pretty easy song... See ya!

**************************************************************************
TAKE A LOOK TO THE SKY JUST BEFORE YOU DIE, IT'S THE LAST TIME YOU WILL!!!
**************************************************************************
Comments