Iron Maiden - Another Life Chords & Tabs

 

Another Life Chords & Tabs

Iron Maiden Chords & Tabs

Version: 1 Type: Tab 0 ratings
1 star 2 stars 3 stars 4 stars 5 stars
comments

Another Life Tab

Iron Maiden -Another life

-------------------               -----------|
------6--7b--------               -----------|
------6--7b--------  X3    ending 7-6-7------|    Play both bars twice
7--9---------------               ------7----|
-------------------               -----------|
-------------------               -----------|


----------------9-h-10-p-9-h-10-p-9-h-10-p-9-h-10-p-9-h-10-p-9-h-10---|
15/\---/\-------------------------------------------------------------|
--(16)(17)------------------------------------------------------------|
----------------------------------------------------------------------|
----------------------------------------------------------------------|
----------------------------------------------------------------------|


----------14b-------------------14b------------------14b------------------------|
14b--------(15)------14b--------(15)-----14b---------(15)------14S\-9-----------|
-(15)----------------(15)----------------(15)-----------------------------------|
--------------------------------------------------------------------------------|
--------------------------------------------------------------------------------|
--------------------------------------------------------------------------------|


16b-------16b------16------15---1515--p14-p12------15---1515--p14-p12----|
-(17)------(17)------------------------------------------------------------|
---------------------------------------------------------------------------|
---------------------------------------------------------------------------|
---------------------------------------------------------------------------|
---------------------------------------------------------------------------|

[ Tab from: http://www.guitartabs.cc/tabs/i/iron_maiden/another_life_tab.html ]
15---1515--p14-p12------15---1515--p14-p12-----------------------------------------------|
--------------------------------------------------------------15--p14-p12----14b/\/\/\/\--|
-------------------------------------------------------------------------------------------|
-------------------------------------------------------------------------------------------|
-------------------------------------------------------------------------------------------|
-------------------------------------------------------------------------------------------|


-------------------------------------------------------15b-----17b------15b-------20----20b/\/\/\/\--S/-1--|
12S/-15-----15b--------12S/-15-----15b-------17b-------(16)----(18)-----(16)-------------(21)--------------|
-------------(16)------------------(16)------(18)----------------------------------------------------------|
-----------------------------------------------------------------------------------------------------------|
-----------------------------------------------------------------------------------------------------------|
-----------------------------------------------------------------------------------------------------------|

main riff                        riff ending 1
--------------------------      ----------------------------------|
--------------------------      ----------------------------------|
----4-----4----4---4--4---      ---4----6----7----6----5----------|
----2-----2----2---2--2--- X4   ---2----4----5----4----3----------|
0-0---0-0----0---0--------      0----0----0----0---0--------------|
--------------------------      ----------------------------------|

riff ending 2
10-10-10-10-10-10-10-10--10--9--7--8-             10-9-7-8-10-9-7-8--------11-|
-------------------------------------             ------------------9-8-7-----|
------------------------------------- X3  Ending  ----------------------------|
-------------------------------------             ----------------------------|
-------------------------------------             ----------------------------|
-------------------------------------             ----------------------------|


second solo not finished
Comments