Iron Maiden - 2 Minutes To Midnight Chords & Tabs

 

2 Minutes To Midnight Chords & Tabs

Iron Maiden Chords & Tabs

Version: 1 Type: Tab 9 ratings
1 star 2 stars 3 stars 4 stars 5 stars
comments

2 Minutes To Midnight Tab

   
2 Minutes To Midnight – Iron Maiden
Album: Powerslave
Track 2
Standard tuning (e B G D A e).


Intro: 
|--------------------------------------------------------| 
|-----------------------7--7-----------------------------| 
|.----5----7----5----7--7--7------5-----7----5------2—--.|
|.----5----7----5----7--7--7------5-----7----5------2---.| 
|-00---00---00--00-----------00----00---00----00--0------| x2
|--------------------------------------------------------| 

Verse part 1:
|-------------------------------------------------------------| 
|-------------------------------------------------------------| 
|.----5----7----5----7--7--7------5-----7----5------2--------.|
|.----5----7----5----7--7--7------5-----7----5------2—-------.| 
|-00---00---00--00-----------00----00---00----00--0--0-3p0----| x2
|-------------------------------------------------------------| 
On 2nd and 3rd verses play once.

|------------------------------------------------------------| 
|------------------------------------------------------------|
|.----5----7----5----7--7--7-7-----5-----7----5--5--5-5-5---.| 
|.----5----7----5----7--7--7-7-----5-----7----5--5--5-5-5---.| 
|-00---00---00--00-------------55---55---55------------------| 
|------------------------------------------------------------| 

Chorus:
|-------------------------------------------------------------------
|-----------------6---6------3-------3------------------------------ 
|-2---x-x--2----x-5---5--x-x-4--x-x--4--5----5/5----------------3--- 
|-2---x-x--2----x-7---7--x-x-5--x-x--5--5----5/5--------3---x-x-3--- 
|-0---x-x--0----x-0---------------------3----3/2p0------3---x-x-1—--
|-------------------------------------------------------1---x-x----- 

---------------------
---------------------
-3/----5-5-5-5---5--- 
-3/----5-5-5-5---5--- 
-1-----3-3-3-3---2--- 
--------------------- 

---------------------------------------------------------------- 
-----------------6----------3-------3--------------------------- 
-2---x-x--2----x-5------x-x-4--x-x--4--5----5/5---------------3- 
-2---x-x--2----x-7------x-x-5--x-x--5--5----5/5----3---x-x-3--3- 
-0---x-x--0----x-0---------------------3----3/2p0--3---x-x-3--1- 
---------------------------------------------------1---x-x-1----

-------------------| 
-------------------| 
-3/2--2p0--2--1----| 
-3/2--2p0--2--2----| 
-----------2--2----| 
-----------0--0----| 

Bridge:
|--------------------------------------------------------------------|
|----------------------------------------6---------------------------| 
|-------------------------------------7----7---10--12----------------|
|-5-7-7-7-7p5----5-7-7-7-7p5---5------7------7-10--12--7-5-----------|
|-0-0-0-0-0---7--0-0-0-0-0---7-3-5----5--------8---10------7-6-5-3-0-| 
|--------------------------------3-----------------------------------| 




|--------------------------------------------------------------------|
|----------------------------------------6---------------------------| 
|-------------------------------------7----7---10--12----------------|
|-5-7-7-7-7p5----5-7-7-7-7p5---5------7------7-10--12--7-5-----------|
|-0-0-0-0-0---7--0-0-0-0-0---7-3-5----5--------8---10------7-6-5-3-0-| 
|--------------------------------3-----------------------------------|


Post Chorus:
|----------------------------------------------------------------- 
|----------------------7--7---------------------------------------
|----5----7----5----7--7--7------5-----7----5--------------------—
|----5----7----5----7------------5-----7----5------—7-5-----------
|-00---00---00--00-----------00----00---00----00--0-----7-6-5-3-0- 
|-----------------------------------------------------------------

-----------------------------------------------------------------| 
--------------------------7--7-----------------------------------|
----5----7----5h7p5----7--7v-7------5-----7----5------2----------| 
----5----7----5h7p5----7--7--7------5-----7----5------2----------| 
-00---00---00--------------------00----00---00----00--0--0-3p0---| 
-----------------------------------------------------------------| 

Rhythm during solo 1: 
|-----------------------------------------------------------------------------|
|-----------------------------------------------------------------------------|
|.--9-5/7-7-7-x-x-5-4-------------4-5-7----9-5/7-7-7-x-x-5-4-----------------.|
|.--7-3/5-5-5-x-x-3-2---7---4-5-7----------7-3/5-5-5-x-x-3 2--------3--------.|
|----------------------5--------------------------------------5—3-5---5-3-0---|
|-----------------------------------------------------------------------------|


Rhythm during solo 2:
|--------------------------------------- 
|-----3-----3--------------------------- 
|-9-9-0-x-x-0-x-x-5--5--6--------------- 
|-9-9-0-x-x-0-x-x-5--5--7-------4-5-7--- 
|-7-7-2-x-x-2-x-x-3--3--4-4-5-7--------- 
|--------------------------------------- 

---------------------------------------| 
-----3-----3---------------------------| 
-9-9-0-x-x-0-x-x-5--5--6---------------| 
-9-9-0-x-x-0-x-x-5--5--7---------------| 
-7-7-2-x-x-2-x-x-3--3--4----2-5-2------| 
--------------------------5-------5-3--| 

Guitar Solo 1: 
|----------------||---------------------------------| 
|----------------||---------------------------------| 
|-12-------------||--7b9==(7)----(7)-(7)---(7)-(7)r-| 
|-12----x-------||---------------------------------| 
|-10----x-------||---------------------------------| 
|----------------||---------------------------------| 
 
|----------------------|---------------------------| 
|----------------------|---------------------------| 
|------7p5-4h5p--4p2p0-|-0-----(0)-----------0h2---| 
|----------------------|---------------------------| 
|----------------------|---------------------------| 
|----------------------|---------------------------| 
 
|--------------------|---------------------------------| 
|--------------5---6-|-8--6--5h6p-5----5h6p5-8p6p5---5h| 
|-(2)----------------|---------------------------------| 
|--------------------|---------------------------------| 
|--------------------|---------------------------------| 
|--------------------|---------------------------------| 
[ Tab from: http://www.guitartabs.cc/tabs/i/iron_maiden/2_minutes_to_midnight_tab.html ]
|----------------------------| 
|--6p=5-8p6p5----------------| 
|-------------7p5-7p5s4-(4)--| 
|----------------------------| 
|----------------------------| 
|----------------------------| 
 
|-------------------------------------|------------------------| 
|-------------------------------------|------------------------| 
|-0---------(0)----(0)-----()-|-()------h12-------| 
|-------------------------------------|------------------------| 
|-------------------------------------|------------------------| 
|-------------------------------------|------------------------| 
 
|------------------15pb17-----|-(15)--(15)r(15)p12-15----12-----| 
|-15pb17r--(15)p13------------|-----------------------15----13--| 
|-----------------------------|---------------------------------| 
|-----------------------------|---------------------------------| 
|-----------------------------|---------------------------------| 
|-----------------------------|---------------------------------| 

|-----------------------------|---------------------------------| 
|------------------15---------|-(15)--(15)-(15)p13-15-12-13-----| 
|-16pb17r--(16)p14------------|-----------------------------14--| 
|-----------------------------|---------------------------------| 
|-----------------------------|---------------------------------| 
|-----------------------------|---------------------------------| 

|--------------15-----------------------| 
|-15b17--(15)r----15pb17r(15)p13-13-----| 
|-----------------------------------14--| 
|---------------------------------------| 
|---------------------------------------| 
|---------------------------------------| 
 
|--------------------7-----|--7---8---10---12--| 
|--------------------------|-------------------| 
|-(14)--------------------|-------------------| 
|--------------------------|-------------------| 
|--------------------------|-------------------| 
|--------------------------|-------------------| 
 
|-13--15---17-17---17-20-20b22--| 
|-------------------------------| 
|-------------------------------| 
|-------------------------------| 
|-------------------------------| 
|-------------------------------| 

|-(20)r-20pb22--(20)r(20)-(17)--------------|---------------------------|| 
|------------------------------20b22--(20)--|-(20)-----------(20)r-(20)-|| 
|-------------------------------------------|---------------------------|| 
|-------------------------------------------|---------------------------|| 
|-------------------------------------------|---------------------------|| 
|-------------------------------------------|---------------------------|| 
 
Guitar Solo 2 
|----------------------------|-------------------| 
|-15-------------------------|-------------------| 
|-14pb16----(14)r(14)p12-14--|-(14)-----------x-| 
|----------------------------|-------------------| 
|----------------------------|-------------------| 
|----------------------------|-------------------| 
 
|------------------------|------------------| 
|------------------------|------------------| 
|-12--11-------11--------|------------------| 
|--------14-12----12-11--|-11---------------| 
|------------------------|------------------| 
|------------------------|------------------| 

|-12--11-10-------------------------|------------------------| 
|-----------12-11---10-8---10-8-----|------------------------| 
|------------------------9------9-7-|------------------------| 
|-----------------------------------|--9--8-7-5---(5)-xs9---| 
|-----------------------------------|------------------------| 
|-----------------------------------|------------------------| 
 
|-------------------------10-|-(10)--------------| 
|------8-10-10pb12r(10)p8--0-|--(0)--------------| 
|-7--9-----------------------|-------------------| 
|----------------------------|-------------------| 
|----------------------------|-------------------| 
|----------------------------|-------------------| 

|---------------------------|---------------------| 
|---------------------------|---------------------| 
|----------4b6--(4)r(4)-----|-------7s9----------| 
|---------------------------|---------------------| 
|-7--7-7-7----------------7-|--7--7---------------| 
|---------------------------|---------------------| 

|-------------------|---------------------| 
|-------------------|---------------------| 
|-----------6-------|--7-------(7)/-------| 
|-------5-7-----5---|---------------------| 
|-(x)-7-------7---7-|---------------------| 
|-------------------|---------------------| 

|-12-----------------12-----------------------12-|-----------------------------------| 
|-----15b17--(15)r------15p12--------------12----|-12--------------------------------| 
|-----------------------------14b16--(14)r-------|-----14b16--(14)r(14)p12----12-----| 
|------------------------------------------------|-------------------------14--------| 
|------------------------------------------------|-----------------------------------| 
|------------------------------------------------|-----------------------------------| 

|-15b17--(15)r-15-14---12-----------|-------------------------------------|| 
|-------------------------15---[13]-|-[12]--------------------------------|| 
|-----------------------------------|------[14]---[12]---[11]-------------|| 
|-----------------------------------|---------------------------14---12---|| 
|-----------------------------------|-------------------------------------|| 
|-----------------------------------|-------------------------------------|| 

Interlude: 
|--------------------------------------------
|--------------------------------------------
|-5------7----9--7--9---12--7--9------------- 
|-5v-/---7----9--7--9v--12--7--9v--(2 times)-
|-3----0-5----7--5--7---10--5--7------------- 
|-----------0--------------------------------

-12------------------------------------ 
---12-15/dive-------------------------- 
----------------14b-12-----7-----7v---- 
----------------------14v----9-7------- 
--------------------------------------- 
--------------------------------------- 


-12---------------------------------------------------------- 
---12-10h12p10-----------15------------12-13-12-------------- 
----------------12p11h12-----14b-12-14------------7w/bar----- 
------------------------------------------------------------- 
------------------------------------------------------------- 
------------------------------------------------------------- 

-------------------------------| 
-------------------------------| 
-5-----------------------------| 
-5-----------------------------| 
-3-3-5-7-5-5~------------------| 
-------------------------------| 

Repeat Bridge 2
Repeat Verse
Repeat Bridge 1
Repeat Chorus

Outro: 
|------------------------------
|-----------6--8---------------
|-----------5--7---5-7---5-2--- 
|-12--14----3--5---5-7---5-2---(2 times) 
|-10--12-----------3-5---3-0--- 
|------------------------------ 

---------------------------------------------------- 
---------------------------------------------------- 
----------------------10-12-12--12--12p10--12p10—---
-12-14-14-14--5h7p5---10-12-12--12--12p10--12p10---- 
-10-12-12-12--------7-8--10-10--10--10--------------
---------------------------------------------------- 

---------------------------------------------- 
---------------------------------------------- 
-5-7-7-7-7p5--7p5--5-5--2---2---2--2p0--2p0--- 
-5-7-7-7-7p5--7p5--5-5--2---2---2--2p0--2p0--- 
-3-5-5-5-5---------3-3--0---0---0------------- 
---------------------------------------------- 

---------------------------------------------------- 
---------------------------------------------------- 
----------------------10-12-12--12--12p10--12p10—---
-12-14-14-14--5h7p5---10-12-12--12--12p10--12p10---- 
-10-12-12-12--------7-8--10-10--10--10-------------- 
---------------------------------------------------- 

-------------------------------| 
-------------------------------| 
-5--7--7---7--7p5--7p5---5-2—--|
-5--7--7---7--7p5--7p5---5-2—--|
-3--5--5---5-------------3-0—--|
-------------------------------| 
Comments