Iron Maiden - 22 Acacia Avenue Chords & Tabs

 

22 Acacia Avenue Chords & Tabs

Iron Maiden Chords & Tabs

Version: 2 Type: Tab 0 ratings
1 star 2 stars 3 stars 4 stars 5 stars
comments

22 Acacia Avenue Tab

adrian smith
------------------------------------12-14----12------------|
-15b-15b-15b-15br15-12-15r15b--15b--------15----12h15------|
-------------------------------------------------------14b-|
-----------------------------------------------------------|
-----------------------------------------------------------|
-----------------------------------------------------------|

-----------------------------------------------------------|
-12h15-----------12----------------------------------------|
-------15-14-12--12----------------------------------------|
---------------------14-12---------------------------12h14-|
---------------------------14-13-12\10--12-----12h14-------|
--------------------------------------------15-------------|

-----------------------------------------------------------|
---------12h13-----12-------------12h15-----12h15----------|
-12-14b---------14-----14p12--14b-------14b-------14b------|
-----------------------------------------------------------|
-----------------------------------------------------------|
-----------------------------------------------------------|

-----------------12----------------------------------------|
-----12h15------------15b----------------------------------|
-14b-------14b---------------------------------------------|
-----------------------------------------------------------|
-----------------------------------------------------------|
-----------------------------------------------------------|

-----15p12------------14p12-------------15p12--------------|
-15b-------15-12--15b--------15-12--15b-------15-12--------|
-----------------------------------------------------------|
-----------------------------------------------------------|
-----------------------------------------------------------|
-----------------------------------------------------------|

-----17p12------------14p12------------14p12----------------|
-15b-------15-12--15b-------15-12--15b--------15-12-15br15--|b
------------------------------------------------------------|
------------------------------------------------------------|
------------------------------------------------------------|
------------------------------------------------------------|

-17-17-17-17-15-14-15-14-----14----------------------------|
--------------------------17----17-15-17-15----------------|
-----------------------------------------------------------|
-----------------------------------------------------------|
-----------------------------------------------------------|
-----------------------------------------------------------|
[ Tab from: http://www.guitartabs.cc/tabs/i/iron_maiden/22_acacia_avenue_tab_ver_2.html ]
-----------------------------------------------------------|
-13-15-13-12-13-12------------15---------------------------|
-------------------14-12~~~~--14b--12h14p12~~~~------------|
-----------------------------------------------------------|
-----------------------------------------------------------|
-----------------------------------------------------------|

-0-0-0-0-0-0-0--0-0-0-0-0-0-0-0-0--0-0-0-0-0-0-0-0-0-------|
-3h5-5-5-5-5-5--3h5-5-5-5-5-5-5-5--3h5-5-5-5-5-5-5-5-------|
-----------------------------------------------------------|
-----------------------------------------------------------|
-----------------------------------------------------------|
-----------------------------------------------------------|

-0-0-0-0-0-0-0-0----0-0-0-0--0--0---0-0-0--0--0--0---------|
-3h5-5-5-5-5-5-5----8-8-8-10-10-10--8-8-8-10-10-10---------|
-----------------------------------------------------------|
-----------------------------------------------------------|
-----------------------------------------------------------|
-----------------------------------------------------------|

-0-0-0-0-0-0-0-0-0-0-0-0-0-0-0-0---------------------------|
-8-8-8-8-7-7-7-7-5-5-5-5-3-3-3-3----3h5p3h5p3--------------|
------------------------------------------------2br2b------|
-----------------------------------------------------------|
-----------------------------------------------------------|
-----------------------------------------------------------|

-----------------------------------------------------------|
-----------------------------------------------------------|
-12-12x-x14-14--12-14br14-12-14-12~~~~12-12x-x14--14b------|
-12-12x-x14-14------------------------12-12x-x14-----------|
-----------------------------------------------------------|
-----------------------------------------------------------|

-12--------------------------------------------------------|
-----15br15b~~~~------------------15b-12-15----------------|
------------------12-12x-x14-14-------------14-12----------|
------------------12-12x-x14-14--------------------14------|
-----------------------------------------------------------|
-----------------------------------------------------------|

------12---------------------------------------------------|
-15b------12-15---------------------12---------------------|
----------------15-14-15-14-12------12---------------------|
--------------------------------14------14-12--------------|
----------------------------------------------14-13-12-----|
-----------------------------------------------------------|

-----------------------------------------------------------|
--------------------------------------------15br15b--------|
---------------------12-14br14-12--------------------------|
--------------12-14----------------14~~~~~-----------------|
----12-13-14-----------------------------------------------|
-15--------------------------------------------------------|
Comments