Iron Butterfly - In A Gadda Da Vida Chords & Tabs

 

In A Gadda Da Vida Chords & Tabs

Iron Butterfly Chords & Tabs

Version: 1 Type: Tab 2 ratings
1 star 2 stars 3 stars 4 stars 5 stars
comments

In A Gadda Da Vida Tab

   
Main riff

e--------------------------/
b--------------------------/
g---------------2-1-0------/
d-0-0-3-2-0---0-------3----/
a-----------3--------------/
e--------------------------/


        Dm
In a gadda-da-vida, honey
Don't you know that I'm lovin' you
In a gadda-da-vida, baby
Don't you know that I'll always be true
[ Tab from: http://www.guitartabs.cc/tabs/i/iron_butterfly/in_a_gadda_da_vida_tab.html ]
e----------------------------------------/
b----------------------------------------/
g-----------1-2-1-2-3-2-1-2-1-2-1--------/
d-0-2-3-2-3------------------------3-2---/
a----------------------------------------/
e----------------------------------------/


G              E           
Oh, won't you come with me
G            E
And take my hand
A               F#     
Oh, won't you come with me
A              F#  
And walk this land
B               Dm
Please take my hand...


Then repeat the same parts...
Comments