Iron Butterfly - Her Favorite Style Chords & Tabs

 

Iron Butterfly Chords & Tabs

Version: 1 Type: Tab 0 ratings
1 star 2 stars 3 stars 4 stars 5 stars
comments

Her Favorite Style Tab

                     Her Favorite Style

                           by 

                     Iron Butterfly


Such a great song. I know that this isn't 100 percent correct, but it's a close 
guesstimate. So at least it serves as a template to get you headed in the right direction.

|----------------------------------------|
|-----------------8-7--------------------|
|-5-5-8-7-8-7-8-5-----6---5-7-8-----6-5--|
|-----------------------8-------8-4------|
|----------------------------------------|
|----------------------------------------| x4

|----------|
|----------|
|-5~-------|
|-5~-------|
|-3~-------|
|----------| 

|---------------------------------------------------|
|---------------------------------------------------|
|-5--------------5--------------5---5------6----9---|
|-5---5-4-5-4-5--5---5-4-5-4-5--5-5---5----6-6--9---|
|-3-3------------3-3------------3-------4--4----7---|
|---------------------------------------------------| x2

|--------------------------|
|--------------------------|
|--------------------------|
|--------------------------|
|-3--4--5--4--3--4--5--4---|
|--------------------------| x2

|-----------------------------|
|-8-8----6-6----8-8----6-6----|
|-7-7----5-5----7-7----5-5----|
|-8-8----6-6----8-8----6-6----|
|-6-6----4-4----6-6----4-4----|
|-----------------------------| x2

|---------------------------------------------------|
|---------------------------------------------------|
|-5--------------5--------------5---5------6----9---|
|-5---5-4-5-4-5--5---5-4-5-4-5--5-5---5----6-6--9---|
|-3-3------------3-3------------3-------4--4----7---|
|---------------------------------------------------| x2

|--------------------------|
|--------------------------|
|--------------------------|
|--------------------------|
|-3--4--5--4--3--4--5--4---|
|--------------------------| x2
[ Tab from: http://www.guitartabs.cc/tabs/i/iron_butterfly/her_favorite_style_tab.html ]
|-----------------------------|
|-8-8----6-6----8-8----6-6----|
|-7-7----5-5----7-7----5-5----|
|-8-8----6-6----8-8----6-6----|
|-6-6----4-4----6-6----4-4----|
|-----------------------------| x2

|--------------------------|
|--------------------------|
|--------------------------|
|--------------------------|
|-3--4--5--4--3--4--5--4---|
|--------------------------|

|---------------------------------------------------------------|
|-------8--9----------------------------------------------------|
|-8-8---7--8----------------------------------------------------|
|-8-8---5--6-----5---------------5-6-5---5-6-5---5-6-5---5-6-5--|
|-6-6--------------2---5--3----3-------3-------3-------3--------|
|---------------------------------------------------------------| x2

Pick around on these chords
|-----------------------------------------------|
|-8---6---8---6---8---6---8---6---8---6---8---6-|
|-8---6---8---6---8---6---8---6---8---6---8---6-|
|-8---6---8---6---8---6---8---6---8---6---8---6-|
|-6---4---6---4---6---4---6---4---6---4---6---4-|
|-----------------------------------------------|

|----------------------------------|
|----------------------------------|
|------------------------------5---|
|-8--8--10--10--8--8--10-------5---|
|-6--6---6---6--6--6---6-------3---|
|----------------------------------|

|-----------------------------|
|-----------------------------|
|-----------------------------|
|-8--8--10--10--8--8--10--10--|
|-6--6---6---6--6--6---6---6--|
|-----------------------------|

|----------------------------------------|
|-----------------8-7--------------------|
|-5-5-8-7-8-7-8-5-----6---5-7-8-----6-5--|
|-----------------------8-------8-4------|
|----------------------------------------|
|----------------------------------------| x4

|----------|
|----------|
|-5~-------|
|-5~-------|
|-3~-------|
|----------| 

E-mail: steveman1236@gmail.com
Comments