Iron And Wine - Upward Over The Mountain Chords & Tabs

 

Upward Over The Mountain Chords & Tabs

Iron And Wine Chords & Tabs

Version: 2 Type: Tab 0 ratings
1 star 2 stars 3 stars 4 stars 5 stars
comments

Upward Over The Mountain Tab

Artist: Iron and Wine (Sam Beam)
Album: The Creek Drank The Cradle
Song: Upward Over the Mountain

for questions PM me.


Tuning: Standard

Guitar 1: I beleive this is repeated throughout the song.
e------------------------------------------------------------|
b--------0-------------0--------------0--------------0-------|
G-------0-------------0--------------0--------------0--0-0-0-|
D---2-2---2-2-2---2-2----2-2-2-------------------------0-0-0-|
A---2-2---2-2-2---3-3----3-3-3---2-2----2-2-2---5-5----5-5-5-|
E---0-0---0-0-0---0-0----0-0-0---3-3----3-3-3----------------|


Guitar 2: This is also repeated through out the whole song. this starts at around 00:20-00:21 seconds
[ Tab from: http://www.guitartabs.cc/tabs/i/iron_and_wine/upward_over_the_mountain_tab_ver_2.html ]
NOTE: this riff is either strummed really softly or its palm muted i cant really tell.

e----------------------------------------------------------------------------|
b----------------------------------------------------------------------------|
g--------------------------0-0-0-0-0-0-0-0-----------------------------------|
D---0-0--0---0-0-0-0-----5-5-7-5-5-5-7-5---0-0-0-0-0-0-0-0---7-7-9-7-7-7-9-7-|
A---2-2--5---2-2-2-5---2---------------------5-5-7-5-5-5-7-5-----------------|
E----------------------------------------------------------------------------|

When it comes to the part " Mother remember the night that the dog had her pups in the 
3:34-3:35) just strum the chords to "Guitar 1" and the riff builds back up to the 
"guitar 1" riff, also "guitar 2" comes in with its riff around 4:51-4:52


sorry i dont have the slide solo.
Comments