Iron And Wine - Trapeze Swinger Chords & Tabs

 

Trapeze Swinger Chords & Tabs

Iron And Wine Chords & Tabs

Version: 1 Type: Tab 0 ratings
1 star 2 stars 3 stars 4 stars 5 stars
comments

Trapeze Swinger Tab

The song is 9 minutes, and i dont really feel like listening to the whole thing right
now... this is what he does through out most the song if not the whole song.

E|-------------------------------------------|
B|-------------------------------------------|
G|----22-------------------------------------|
D|-2h4---2h4-----22--------------2h4---------|
A|5-----------2h4--2h4--0h2-0h2-5---5-2h4----|
E|-----------5---------3---3---------5---5---|
[ Tab from: http://www.guitartabs.cc/tabs/i/iron_and_wine/trapeze_swinger_tab.html ]
the piano part at the end can be played on the guitar... it is just a major scale. i
didnt take much time to listen to which fret it was, so just play it on the fret that
sounds right, i think it sounds good if you start off on the low e - 6th fret. play it
up, and then reverse it and play it down to make it sound like the piano, then just drop
it to a lower fret to and play it again to sound like the song.

part of the major scale:
E|--------------------------------|
B|--------------------------------|
G|--------------------------------|
D|------*reversed part------------|
A|--134--31-----------------------|
E|24-------4----------------------|
Comments