Iron And Wine - Such Great Heights Chords & Tabs

 

Such Great Heights Chords & Tabs

Iron And Wine Chords & Tabs

Version: 4 Type: Tab 0 ratings
1 star 2 stars 3 stars 4 stars 5 stars
comments

Such Great Heights Tab

   
Title:  Such Great Heights
Band:  Iron and Wine
Tabbed By:  Sam Borchard

        
CAPO 6th Fret

INTRO (Relative to capo)    
                                             D  A                C   E 
e|-------0---------|-----------------|-------3-----------|-------3---------|
B|-1-------------1-|-------1---------|-0---------------0-|-----------------|
G|---0-------0-----|---0-------0-----|---0---------0-----|---0-------0-----|
D|-----2-------2---|-----2-------2---|-----0---------0---|-----0-------0---|
A|-3-------3-------|-3-------3-------|---------0h2-------|-----------------|
E|-----------------|-----------------|-3-----------------|-3-------3-------|
 | 1 + 2 + 3 + 4 + | 1 + 2 + 3 + 4 + | 1 + 2 + 3   + 4 + | 1 + 2 + 3 + 4 + |

                                                                  B  F
e|-----------------|-----------------|-------0---------|-------3-----------|
B|-------0---------|-------0---------|-1-------------1-|-0-----------------|
G|-0-------------0-|---------------0-|---0-------0-----|---0---------0-----|
D|---0-------0-----|---0-------0-----|-----2-------2---|-----0---------0---|
A|-----3-------3---|-----3-------3---|-3-------3-------|---------0h2-------|
E|-1-------1-------|-1-------1-------|-----------------|-3-----------------|
 | 1 + 2 + 3 + 4 + | 1 + 2 + 3 + 4 + | 1 + 2 + 3 + 4 + | 1 + 2 + 3   + 4 + |

The rest of the song is just small variations on the intro.  I'm not going to 
write out all the variations, I'll just mention them here and you can throw them 
in as you like.  The letters in parentheses are found above the tab and show the 
area(s) that are being varied.  
[ Tab from: http://www.guitartabs.cc/tabs/i/iron_and_wine/such_great_heights_tab_ver_4.html ]
++ In the first few repetitions the hammer base is removed(A,B).
++ It never again goes up to G(3rd fret e-string) in the fourth measure(C), it stays at B(0pen B-string).
++ Sometimes the higher note is moved around within the fingerpicking structure(D).  
++ They sometimes walk the bass up in the second half of the fourth measure(E).
    A|-2-3-|
++ Bass is also walked up occasionally at the end of the eighth measure(F).
    A|-0-2-|

I know that was really a little bit too detailed, but make of it what you will.  
You can just play the intro the whole time through and it will sound fine, or 
you can switch the stuff I mentioned to suit your own tastes.

Lastly there is the final ridiculously high guitar part, tabbed w/o capo (I s'pose you
could one on the 18th fret if you wanted).
Again, play the intro under it, and finish on a C chord.

e|-18---------------|---19-18--------18---|-21---------------|---23-21-------21-18-|
B|-19---------------|-----------19--------|-18---------------|----------18---------|
G|-18---------------|---------------------|-18---------------|---------------------|
D|------------------|---------------------|------------------|---------------------|
A|------------------|---------------------|------------------|---------------------|
E|------------------|---------------------|------------------|---------------------|
 | 1  + 2 + 3 + 4 + | 1 +  2  + 3  + 4  + | 1  + 2 + 3 + 4 + | 1 +  2 + 3  + 4  +  |

e|-19---------------|---19-18--------18---|-18-------19-18------|-21-------21---18---|
B|-19---------------|-----------19--------|-19-------------19---|-18-------18--------|
G|-18---------------|---------------------|-18------------------|-18-------18--------|
D|(21)--------------|---------------------|---------------------|--------------------|
A|------------------|---------------------|---------------------|--------------------|
E|------------------|---------------------|---------------------|--------------------|
 | 1  + 2 + 3 + 4 + | 1 +  2  + 3  + 4  + | 1  + 2 + 3  +  4  + | 1  + 2 + 3  + 4  + |

e|-18---------------|
B|-19---------------|
G|-18---------------|
D|------------------|
A|------------------|
E|------------------|
 | 1  + 2 + 3 + 4 + |
Comments