Iron And Wine - Sea And The Rhythm Chords & Tabs

 

Sea And The Rhythm Chords & Tabs

Iron And Wine Chords & Tabs

Version: 2 Type: Tab 0 ratings
1 star 2 stars 3 stars 4 stars 5 stars
comments

Sea And The Rhythm Tab

   
                    

                     Sea and the Rhythm - Iron & Wine

Tabbed by:Josh
          hvva16@gmail.com

Tuning:Standard eBGDAE-Capo on the 4th fret.

This beautiful song is pretty easy. He does some pull off/hammer on randomly on the
Em...Just listen to it and youll get it. I got a pretty good sound pulling off and
hammering on the G string (B when capoed) when you switch from D chord to Em. Enjoy


Capo 4th Fret. = g# D# B F# C# g#

     G              D            Em            Em
g#|----------------------------------------------------------|
D#|--------0-----0-------3-----3-------0-----0-------0-------|
 B|------0-----0-------2-----2-------0-----0-------0---------|
F#|----0-------------0-----0-------2-----2-------2-----------|
C#|--2-------2-----0-------------2-------------2-------------|
G#|----------------------------------------------------0-2-3-|
       Tonight, we're the sea and the salty breeze

     G              D            Em            Em
g#|----------------------------------------------------------|
D#|--------0-----0-------3-----3-------0-----0-------0-------|
 B|------0-----0-------2-----2-------0-----0-------0---------|
F#|----0-----0-------0-----0-------2-----2-------2-----------|
C#|----------------0-------------2-------------2-------------|
G#|--3-------------------------------------------------0-2-3-|
       The milk from your breast is on my lips
       And lovelier words from your mouth to me
       When salty my sweat and fingertips
[ Tab from: http://www.guitartabs.cc/tabs/i/iron_and_wine/sea_and_the_rhythm_tab_ver_2.html ]
   G              D            Em            Em
|----------------------------------------------------------|
|--------0-----0-------3-----3-------0-----0-------0-------|
|------0-----0-------2-----2-------0-----0-------0---------|
|----0-----0-------0-----0-------2-----2-------2-----------|
|----------------0-------------2-------------2-------------|
|--3-------------------------------------------------0-2-3-|
                      Our hands they seek the end of afternoon
                      My hands believe and move over you

   G              D            Em            Em
|----------------------------------------------------------|
|--------0-----0-------3-----3-------0-----0-------0-------|
|------0-----0-------2-----2-------0-----0-------0---------|
|----0-----0-------0-----0-------2-----2-------2-----------|
|----------------0-------------2-------------2-------------|
|--3-------------------------------------------------0-2-3-|
     Tonight, we're the sea and the rhythm there 
     the waves and the wind and night is black 
     Tonight we're the scent of your long black hair 
     spread out like your breath across my back

   G              D            Em            Em
|----------------------------------------------------------|
|--------0-----0-------3-----3-------0-----0-------0-------|
|------0-----0-------2-----2-------0-----0-------0---------|
|----0-----0-------0-----0-------2-----2-------2-----------|
|----------------0-------------2-------------2-------------|
|--3-------------------------------------------------0-2-3-| 
                     Your hands they move like waves over me 
                     beneath the moon, tonight, we're the sea


Here is the little Banjo Solo thingy for guitar. Its not perfect.
Capo still on the 4th Fret...
|---------------------------------------------------------------|
|---------------------------------------------------------------|
|---------------------------------------------------------------|
|--5/7\5--5/7\5--7-6-3--3-3-4-5-4-5/7\5--5/7\5--7-6-3--3-3-4-5-4|
|---------------------------------------------------------------|
|---------------------------------------------------------------|

http://www.hotfrets.com/tabwriter.asp
Comments