Iron And Wine - Sea And The Rhythm Chords & Tabs

 

Sea And The Rhythm Chords & Tabs

Iron And Wine Chords & Tabs

Version: 1 Type: Tab 0 ratings
1 star 2 stars 3 stars 4 stars 5 stars
comments

Sea And The Rhythm Tab

-------------------------------------------------------------------------------
			     Sea and the Rhythm - Iron & Wine
-------------------------------------------------------------------------------
Tabbed by:tim
Email:tonarecker@yahoo.com

Tuning:everything's down a half note or so

yet another beautiful song from mr. beam

e|-------0-------------3---------------0-------------0---------|
B|-1-------1-----0-------0-----0h1-------1-----1---------1-----|
G|---0-------0-----0-------0-------2-------2-----2-----------0-|
D|-----2-------2-----0-------0-------2-------2-----2-----------|
A|-3---------------------------0---------------0-------0---2---|
E|---------------3---------------------------------------------|

Tonight, we're the sea and the salty breeze
The milk from your breast is on my lips

e|-------0-------------3---------------0-------------0---------|
B|-1-------1-----0-------0-----0h1-------1-----1---------1-----|
G|---0-------0-----0-------0-------2-------2-----2-----------0-|
D|-----2-------2-----0-------0-------2-------2-----2-----------|
A|-3---------------------------0---------------0-------0---2---|
E|---------------3---------------------------------------------|
And lovelier words from your mouth to me
When salty my sweat and fingertips
[ Tab from: http://www.guitartabs.cc/tabs/i/iron_and_wine/sea_and_the_rhythm_tab.html ]
e|-------0-------------3---------------0-------------0---------|
B|-1-------1-----0-------0-----0h1-------1-----1---------1-----|
G|---0-------0-----0-------0-------2-------2-----2-----------0-|
D|-----2-------2-----0-------0-------2-------2-----2-----------|
A|-3---------------------------0---------------0-------0---2---|
E|---------------3---------------------------------------------|

Our hands they seek the end of afternoon
My hands believe and move over you

e|-------0-------------3---------------0-------------0---------|
B|-1-------1-----0-------0-----0h1-------1-----1---------1-----|
G|---0-------0-----0-------0-------2-------2-----2-----------0-|
D|-----2-------2-----0-------0-------2-------2-----2-----------|
A|-3---------------------------0---------------0-------0---2---|
E|---------------3---------------------------------------------|

Tonight, we're the sea and 
the rhythm there 
the waves and the wind and night is black 
tonight we're the scent of your 
long black hair 
spread out like your breath 
across my back 
Your hands they move like waves over me 
beneath the moon, tonight, we're the sea

e|-------0-------------3---------------0-----------------------|
B|-1-------1-----0-------0-----0h1-------1-----1---------------|
G|---0-------0-----0-------0-------2-------2-------------------|
D|-----2-------2-----0-------0-------2-------2-----------------|
A|-3---------------------------0---------------0---------------|
E|---------------3---------------------------------------------|
Comments