Iron And Wine - On Your Wings Chords & Tabs

 

On Your Wings Chords & Tabs

Iron And Wine Chords & Tabs

Version: 4 Type: Tab 0 ratings
1 star 2 stars 3 stars 4 stars 5 stars
comments

On Your Wings Tab

   
----------------------------------------------------------------
                             ON YOUR WINGS - Iron & Wine
----------------------------------------------------------------
Tabbed by: Bowen Jones
E-mail: jonesb93@gmail.com

Tuning: Standard

e|------------------------------------------------------|
B|------------------------------------------------------|
G|-----------10-7-5-7-----------------------------------|
D|--5-5-3-0---------------------------------------------|
A|------------------------------------------------------|
E|------------------------------------------------------|

e|--------------------------------------------------------------|
B|--------------------------------------------------------------|
G|------10---------10---------10---------10---------------------|
D|---------10---------8----------8----------8-------------------|
A|--------------------------------------------------------------|
E|--8-8--------8-8--------6-6--------6-6------------------------|

Slide part
[ Tab from: http://www.guitartabs.cc/tabs/i/iron_and_wine/on_your_wings_tab_ver_4.html ]
e|------------------------------------------------------|
B|--6/8-------------------------------------------------|
G|---------5/7------------------------------------------|
D|------------------------------------------------------|
A|------------------------------------------------------|
E|------------------------------------------------------|

e|------------------------------------------------------|
B|--------------11\10--10\8--8\6--6/8--8----------------|
G|--5/7--7\5----------------------------------5/7-------|
D|------------------------------------------------------|
A|------------------------------------------------------|
E|------------------------------------------------------|

e|------------------------6-----------------------------|
B|-------6-8--6-------6-8---8-(6)-----------------------|
G|--5/7----------5/7------------------------------------|
D|------------------------------------------------------|
A|------------------------------------------------------|
E|------------------------------------------------------|


************************************

| /   slide up
| \   slide down
| h   hammer-on
| p   pull-off
| ~   vibrato
| +   harmonic
| x   Mute note
| b   Bend
| pb  Pre-bend
| br  Bend release
| pbr Pre-bend release
| brb Bend release bend

************************************
Comments