Iron And Wine - Nakes As We Came Chords & Tabs

 

Nakes As We Came Chords & Tabs

Iron And Wine Chords & Tabs

Version: 1 Type: Tab 3 ratings
1 star 2 stars 3 stars 4 stars 5 stars
comments

Nakes As We Came Tab

Iron & Wine - "Naked As We Came"

A fantastic little song--made especially easy with a capo and Drop D tuning.

Enjoy.

Keith Urbahn, keith.urbahn@yale.edu


Drop D with Capo on 2 (All notes from capo)
[ Tab from: http://www.guitartabs.cc/tabs/i/iron_and_wine/nakes_as_we_came_tab.html ]
Intro X4 and then Verse X4
E|---------------------------------|--------------------------------|
B|-------3--------3-------3------3-|-------0-------0-----0---------0|
G|---0--------0-------0------0-----|---0-------0-------0-------0----|
D|-----4--------4-------4------4---|-----0-------0---------0-----0--|
A|-5----------------0--------------|-----------------2-------0------|
D|---------0----------------0------|-2-------4----------------------|

Chorus x4

E|---------------0-----------------|--------------------------------|
B|-------0---------------0-------0-|-------0-------0-----0---------0|
G|---0-------0-------0-------0-----|---0-------0-------0-------0----|
D|-----2-------2-------2-------2---|-----0-------0---------0-----0--|
A|-0-------0-------0-------0-------|-----------------2-------0------|
D|---------------------------------|-2-------4----------------------|

Intro
Verse
Chorus
Verse
Chorus
Verse

Comments