Iron And Wine - Love And Some Verses Chords & Tabs

 

Love And Some Verses Chords & Tabs

Iron And Wine Chords & Tabs

Version: 1 Type: Tab 0 ratings
1 star 2 stars 3 stars 4 stars 5 stars
comments

Love And Some Verses Tab

 Artist: Iron & wine
 Title: love and Some Verses
 Album: Our Endless Numbered days
 Website: http://www.ironandwine.com/

 Capo 2 all guitars
 Drop D Tuning

 Intro/Verse - this part is played continuously throughout the song except  for during the bridge and the outro

 E-----------------------0--------------------------|
 B-----------0-----------------------0-----------0--|
 G-----2-----------2-----------2-----------2--------|
 D--------2-----------2-----------2-----------2-----|
 A--0-----------0-----------0-----------0-----------|
 D--------------------------------------------------|    x2

 E--------------------------|
 B-----------0-----------0--|
 G-----2--------------------|
 D--------0-----------0-----|
 A--------------0h-2--------|
 D--0-----------------------|     x4

 Bridge

 E------------------------------------------------------0------------------|
 B--3--3--------3--------5p3--3p2--2--------0-----------------------3p2----|
 G--4-----4--------4---------------2--2-----------2-----------2------------|
 D--0--------0--------0------------2-----2-----------2-----------2---------|
 A--5------------------------------------------0-----------0---------------|
 D-------------------------------------------------------------------------|

  E------------------------------------------------------0----------------------------------------------0-------|
B--3--3--------3--------5p3--3p2--2--------0-----------------------0-----------0--2--------0-----------------2--|
G--4-----4--------4---------------2--2-----------2-----------2-----------2--------2--2----------2---------2-----|
D--0--------0--------0------------2-----2-----------2-----------2-----------2-----2-----2----------2------------|
A--5------------------------------------------0-----------0-----------0-----------------------0-----------------|
D---------------------------------------------------------------------------------------------------------------|

 2nd Guitar (slide)

 Solo
[ Tab from: http://www.guitartabs.cc/tabs/i/iron_and_wine/love_and_some_verses_tab.html ]
 E----------------------------------------------------|
 B----------------------------------------------------|
 G----------------------------------------------------|
 D--7--9/11-11--/9\7-7\4-4---2/4-4---7/9-9\7-7--------|
 A----------------------------------------------------|
 D---------------------------------------------   x 2-|

 E---------------------------------------------|
 B---------------------------------------------|
 G--6---7/9---9---/7\6--6\2--2---1/2--2---6/7--|
 D--7---9/11--11--/9\7--7\4--4---2/4--4---7/9--|
 A---------------------------------------------|
 D---------------------------------------------|   x 2

 E-------------------------------------------------------------------------|
 B-------------------------------------------------------------------------|
 G---------------------------------------------------------------9---------|
 D--9/12-12---14\12-12\11-11--/12\11\--7/12---14\12-12\11-11-----11--7--11-|
 A-------------------------------------------------------------------------|
 D-------------------------------------------------------------------------|

Intro x2

 Verse 1:
 Love is a dress that you made
 Long to hide your knees
 love to say this to your face
 "I'll love you only"
 For your days and excitement
 What will you keep for to wear?
 Someday drawing you different
 May I be weaved in your hair?

 Bridge

 Solo (with verse playing behind)

 Verse 2:
 Love and some verses you hear
 Say what you can't say
 Love to say this in your ear,
 "I'll love you that way"
 From your changing contentments,
 What will you choose for to share?
 Someday drawing you different,
 May I be weaved in your hair?

 Outro (with break playing behind)

 E------------------------------------------------------------|
 B------------------------------------------------------------|
 G------------------------------------------------------------|
 D--9/12-12---14\12-12\11-11--/12\11\--7/12---14\12-12\11-11--|
 A------------------------------------------------------------|
 D------------------------------------------------------------|


 then:

 E-----------------------0--------------------------|
 B-----------0-----------------------0-----------0--|
 G-----2-----------2-----------2-----------2--------|
 D--------2-----------2-----------2-----------2-----|
 A--0-----------0-----------0-----------0-----------|
 D--------------------------------------------------|    x4

 Any queries or corrections please email me at kc_sharky@hotmail.com
Comments