Iron And Wine - Jezebel Chords & Tabs

 

Jezebel Chords & Tabs

Iron And Wine Chords & Tabs

Version: 2 Type: Tab

Jezebel Tab

Jezebel - Iron and Wine

Capo on 2nd fret.

Guitar 1
E|--5-3-0-3--8-3-0-3--7-3---3--5-3-0-3--|
B|------------------------3-------------|
G|--------------------------------------|
D|--------------------------------------|
A|--------------------------------------|
E|--------------------------------------|

Guitar 2
E|--------0---------------3--------------------------------------------|
B|--1---------------1-------------0---------0--------------------------|
G|----2-------2---0---0-------0-------------------0---------0----------|
D|------2---------------2-------2-----0-------0---------0-------0---0--|
A|--0-------0---2---3-------3-----------2-------2---------3------------|
E|----------------------------------3-------3---------1-------1---3----|

Riff (During intro and outro)
E|-------------------------------------------------------------------|
B|-------------------------------------------------------------------|
G|-----9---9------7------5----7p5-4/5----7---9p7-6/7----5---7p5-4/5--|
D|--7----7---7--5---5--2---2-----------5---5----------3---3----------|
A|-------------------------------------------------------------------|
E|-------------------------------------------------------------------|
[ Tab from: http://www.guitartabs.cc/tabs/i/iron_and_wine/jezebel_tab_ver_2.html ]
E|-------------------------------------------------------------------|
B|-------------------------------------------------------------------|
G|-----9---9------7------5----7p5-4/5----7---7-9-7------5---7p5-4/5--|
D|--7----7---7--5---5--2---2-----------5---5----------3---3----------|
A|-------------------------------------------------------------------|
E|-------------------------------------------------------------------|

Solo
E|--------------------------------------------------|
B|--5-5-5-3---5-b5-3---1h3-5-3-1-1h3-1-----1-3-3/5--|
G|----------5--------5-----------------0-2----------|
D|--------------------------------------------------|
A|--------------------------------------------------|
E|--------------------------------------------------|

E|-------------------------------------------------|
B|--5-5-3---5-b5-3---1h3-5-3-1-1h3-1-----1-3----1--|
G|--------5--------5-----------------0-2-----0h2---|
D|-------------------------------------------------|
A|-------------------------------------------------|
E|-------------------------------------------------|

E|-------------------------------------------------|
B|----------------1-3-5-b5-3-1h3-b5-1-3-1-----1-3--|
G|--0h2p0-------2-------------------------0-2------|
D|--------0h2p0------------------------------------|
A|-------------------------------------------------|
E|-------------------------------------------------|

E|--------------------------------------------------|
B|--5-5-5-3---5-b5-3---1h3-5-3-1-1h3-1-----1-3------|
G|----------5--------5-----------------0-2-----0/2--|
D|--------------------------------------------------|
A|--------------------------------------------------|
E|--------------------------------------------------|

2nd To Last Verse
E|---------------------------------------|
B|---------0---------1-----------0-------|
G|---------------------------------------|
D|--------------3------------------------|
A|--2-3----2---------0----2-3---------3--|
E|--------------1----------------3----1--|