Iron And Wine - Half Moon Chords & Tabs

 

Half Moon Chords & Tabs

Iron And Wine Chords & Tabs

Version: 1 Type: Tab

Half Moon Tab

   
-------------------------------------------------------------------------------
			     HALF MOON - Iron & Wine
-------------------------------------------------------------------------------
Tabbed by: mmasterflex

Tuning:DADGAd
Capo: 2nd

The picking pattern is really easy, so I will let you figure it out.  Feel free to 
correct anything, or expand.

First Part
[ Tab from: http://www.guitartabs.cc/tabs/i/iron_and_wine/half_moon_tab.html ]
d|----------0----------------------------------------------------------------|
A|------------0--------------------------------------------------------------|
G|---0---0-------------------------------------------------------------------|
D|---2/4-4-------------------------------------------------------------------|
A|---0---0-------------------------------------------------------------------|
D|---0---0-------------------------------------------------------------------|

Second Part

d|---------------------------------------------------------------------------|
A|---------------------------------------------------------------------------|
G|--0---------------0-----0--------------------------------------------------|
D|--0---------------0-----0--------------------------------------------------|
A|--5---------------5-----2--------------------------------------------------|
D|--5---------------4-----2--------------------------------------------------|


************************************

| /   slide up
| \   slide down
| h   hammer-on
| p   pull-off
| ~   vibrato
| +   harmonic
| x   Mute note
| b   Bend
| pb  Pre-bend
| br  Bend release
| pbr Pre-bend release
| brb Bend release bend

************************************