Iron And Wine - Cinder And Smoke Chords & Tabs

 

Cinder And Smoke Chords & Tabs

Iron And Wine Chords & Tabs

Version: 1 Type: Tab 0 ratings
1 star 2 stars 3 stars 4 stars 5 stars
comments

Cinder And Smoke Tab

   
-------------------------------------------------------------------------------
			     Cinder And Smoke -- Iron and Wine
-------------------------------------------------------------------------------



Tuning: Standard

(Let notes ring as long as possible.)

e|-----------2---------------------2-----------------------------------------|
B|--2-------------------2----------------------------------------------------|
G|-----3----------3----------3----------3-----3------------------------------|
D|--------4----------4----------4----------4---------------------------------|
A|---------------------------------------------------------------------------|
E|---------------------------------------------------------------------------|

e|--0--------2----------0----------2-----------------------------------------|
B|-----0----------0----------0----------0-----0------------------------------|
G|--------0----------0----------0----------0---------------------------------|
D|---------------------------------------------------------------------------|
A|---------------------------------------------------------------------------|
E|---------------------------------------------------------------------------|
[ Tab from: http://www.guitartabs.cc/tabs/i/iron_and_wine/cinder_and_smoke_tab.html ]
e|---------------------------------2-----------------------------------------|
B|--2--------2----------2----------------------------------------------------|
G|-----2----------2----------2-----------------------------------------------|
D|--------4----------4----------4--------------------------------------------|
A|---------------------------------------------------------------------------|
E|---------------------------------------------------------------------------|

e|--0--------2----------0----------2-----------------------------------------|
B|-----0----------0----------0-----------------------------------------------|
G|--------0----------0----------0--------------------------------------------|
D|---------------------------------------------------------------------------|
A|---------------------------------------------------------------------------|
E|---------------------------------------------------------------------------|


That's about it... There's some stuff going on in the background that's hard to hear... If I
ever get around to figuring it out I'll post it.


| /  slide up
| \  slide down
| h  hammer-on
| p  pull-off
| ~  vibrato
| +  harmonic
| x  Mute note
===============================================================================
Comments