Ireland James - All Out Shred In E Minor Chords & Tabs

 

All Out Shred In E Minor Chords & Tabs

Ireland James Chords & Tabs

Version: 1 Type: Tab 0 ratings
1 star 2 stars 3 stars 4 stars 5 stars
comments

All Out Shred In E Minor Tab

----------------------------------------
All Out Shred in E Minor - James Ireland
----------------------------------------

260bpm
[ Tab from: http://www.guitartabs.cc/tabs/i/ireland_james/all_out_shred_in_e_minor_tab.html ]
e|-----------------------------------|
B|-----------------------------------|
G|----------------------------7-9-11-|
D|-------------------5-7-9-11--------|
A|-----------4-5-7-9-----------------|
E|-0-2-3-5-7-------------------------|
   1       .       .       .          
e|----------------12-14-15-17-19-17-15-14-12------|
B|----10-12-14-15---------------------------15-14-|
G|-12---------------------------------------------|
D|------------------------------------------------|
A|------------------------------------------------|
E|------------------------------------------------|
   2           .           .           .
e|--------------------------------------|
B|-12-10--------------------------------|
G|-------12-11-9-7----------------------|
D|-----------------11-9-7-5-------------|
A|--------------------------9-7-5-4-----|
E|----------------------------------7-5-|
   3           .        .       .        
e|---------------------------------|
B|---------------------------------|
G|---------------------------------|
D|---------------------------------|
A|-------------------------------4-|
E|-3-2-0---0-2-3-5-7-5-3-2-3-5-7---|
   4       .       .       .
e|----------------------------------|
B|----------------------------------|
G|----------------------------------|
D|-------------------5-7-9-11-9-7-5-|
A|-5-7-9-7-5-4-5-7-9----------------|
E|----------------------------------|
   5       .       .       .        
e|----------------------------------------|
B|-------------------------------------10-|
G|------------7-9-11-12-11-9-7-9-11-12----|
D|-4-5-7-9-11-----------------------------|
A|----------------------------------------|
E|----------------------------------------|
   6       .         .         .
e|----------------------------12-14-15-17-15-14-12-|
B|-12-14-15-14-12-10-12-14-15----------------------|
G|-------------------------------------------------|
D|-------------------------------------------------|
A|-------------------------------------------------|
E|-------------------------------------------------|
   7           .           .           .  
e|-14-15-17-19-17-15-14-12-14-15-17-15-14-12-------|
B|-------------------------------------------15-14-|
G|-------------------------------------------------|
D|-------------------------------------------------|
A|-------------------------------------------------|
E|-------------------------------------------------|
   8           .           .           .
e|----------------------------------------------|
B|-12-10-12-14-15-14-12-10----------------------|
G|-------------------------12-11-9-7-9-11-12-11-|
D|----------------------------------------------|
A|----------------------------------------------|
E|----------------------------------------------|
   9           .           .         .
e|-----------------------------------|
B|-----------------------------------|
G|-9-7-------------------------------|
D|-----11-9-7-5-7-9-11-9-7-5---------|
A|---------------------------9-7-5-4-|
E|-----------------------------------|
   10       .       .        .       
e|---------------------------------|
B|---------------------------------|
G|---------------------------------|
D|---------------------------------|
A|-5-7-9-7-5-4---------------------|
E|-------------7-5-3-2-3-5-7-5-3-2-|
   11      .       .       .
e|---------------------------------|
B|---------------------------------|
G|---------------------------------|
D|---------------------------------|
A|---------------------------------|
E|-0-------------------------------|
   12      .       .       .
Comments