Ira - Nucleo Base Chords & Tabs

 

Nucleo Base Chords & Tabs

Ira Chords & Tabs

Version: 1 Type: Bass Tab 0 ratings
1 star 2 stars 3 stars 4 stars 5 stars
comments

Nucleo Base Bass Tab

Song Title: Núcleo Base
Artist: IRA!
----------------------------------------------

This song is called Núcleo Base, and it's from a great brazilian band named IRA!.

Verse:
G:--------------------------------------------------------------------------------------------
D:--------------------------------------------------------------------------------------------
A:--------------------------------------------------------------------------------------------
E:-0-0-0-0-0-0-0-0-0-0-0-0-0-0-0-0-5-5-5-5-5-5-5-5-7-7-7-7-7-7-7-7----------------------------

Chorus:
G:--------------------------------------------------------------------------------------------
D:--------------------------------------------------------------------------------------------
A:-7-7-7-7-7-7-7-7-6-6-6-6-6-6-6-6-4-4-4-4-4-4-4-4-2-2-2-2-2-2-2-2----------------------------
E:-----------------------------------------------------------------5-5-5-5-5-5-5-5-4-4-4-4-4-4

G:--------------------------------------------------------------------------------------------
D:--------------------------------------------------------------------------------------------
A:--------------------------------------------------------------------------------------------
E:-4-4-2-2-2-2-2-2-2-2-0-0-0-0-0-0-0-0--------------------------------------------------------
[ Tab from: http://www.guitartabs.cc/tabs/i/ira/nucleo_base_btab.html ]
G:--------------------------------------------------------------------------------------------
D:--------------------------------------------------------------------------------------------
A:-7-7-7-7-7-7-7-7-6-6-6-6-6-6-6-6-4-4-4-4-4-4-4-4-2-2-2-2-2-2-2-2----------------------------
E:-----------------------------------------------------------------5-5-5-5-5-5-5-5-5-5-5-5-5-5

G:--------------------------------------------------------------------------------------------
D:--------------------------------------------------------------------------------------------
A:--------------------------------------------------------------------------------------------
E:-5-5-7-7-7-7-7-7-7-7-7-7-7-7-7-7-7-7--------------------------------------------------------

End: 
G:--------------------------------------------------------------------------------------------
D:-------------------------------------------------------2------------------------------------
A:----------------------------------------------------2---------------------------------------
E:-5-5-5-5-5-5-5-5-4-4-4-4-4-4-4-4-2-2-2-2-2-2-2-2-0--------------------------------------

Song path:
Intro (play nothing, there's only guitar)
Verse (14x)
Chorus (1x)
Verse (10x)
Chorus (1x)
Verse  (3x)
End

----------------------------------------------------------------------------------------------
That´s it, easy but cool. If anybody has any other tabs for brazilian bands, please email them
to me (cmaria@unisys.com.br).


Submitted by:  Fabio P. Carvalho (cmaria@unisys.com.br)

Comments